Search tabs and chords

Search for song, artist or band

Log in

One click and you are in

Login with Facebook Login with Google

Why sign up and log in

Guitar Tabs Explorer
Shawn Mendes guitar tabs for A little too much

Guitar tabs with lyrics

-------------------------------------------------------------------------------
                             A chord diagramAA LITTLE TOO MUCH - Shawn Mendes
-------------------------------------------------------------------------------
Tabbed by: Rachel

This is my first tab, hope you enjoy!
************************************

Tuning: Standard
Capo: 4

CHORDS:
Em7 chord diagramEm7Em7   G chord diagramGG   Cadd9 chord diagramCadd9Cadd9
G chord diagramGG   D chord diagramDD/F# chord diagramF#F#   Em7 chord diagramEm7Em7   Cadd9 chord diagramCadd9Cadd9

************************************

| /   slide up
| \   slide down
| h   hammer-on
| p   pull-off
| ~   vibrato
| +   harmonic
| x   Mute note
| b   Bend
| pb  Pre-bend
| br  Bend release
| pbr Pre-bend release
| brb Bend release bend

************************************

Intro:

     Em7 chord diagramEm7Em7              G chord diagramGG                  Cadd9 chord diagramCadd9Cadd9
e|---------------------------------------------------------------------------|
B|--------3-----------------3------------------3-------3-------3-------------|
G|----0-------0---0-----0-------0---0------0-------0-------0-------0---0-----|
D|---------------------------------------------------------------------------|
A|--2---2---2---2------------------------3---3---3---3---3---3---3---3-------|
E|--------------------3---0---3---3------------------------------------------|

     Em7 chord diagramEm7Em7     G chord diagramGG                        Cadd9 chord diagramCadd9Cadd9
e|-----------------------------------3-----------------------------------------|
B|---3/5\3---------------3-----------3--------3--------3-------3---------------|
G|-----0---0-----0---0--------0---0-------0--------0-------0-------0---0-------|
D|-----------------------------------------------------------------------------|
A|--------------------------------------3---3----3---3---3---3---3---3---------|
E|-------------3---3---3---3---3-----------------------------------------------|


Verse:

     Em7 chord diagramEm7Em7              G chord diagramGG                  Cadd9 chord diagramCadd9Cadd9
e|---------------------------------------------------------------------------|
B|--------3-----------------3------------------3-------3-------3-------------|
G|----0-------0---0-----0-------0---0------0-------0-------0-------0---0-----| x4
D|---------------------------------------------------------------------------|
A|--2---2---2---2------------------------3---3---3---3---3---3---3---3-------|
E|--------------------3---0---3---3------------------------------------------|

She would not show that she was afraid
But being and feeling alone was too much to face
Though everyone said that she was so strong
What they didn't know is that she could barely carry on

Pre chorus:

     Em7 chord diagramEm7Em7     G chord diagramGG         Cadd9 chord diagramCadd9Cadd9
e|--------------------------------------------------------|
B|--------3--------3--------3-------3-------3-------------|
G|----0--------0--------0-------0-------0-------0---0-----| x2
D|--------------------------------------------------------|
A|--2---2-------------3---3---3---3---3---3---3---3-------|
E|-----------3---0----------------------------------------|

But she knew that she would be okay
So she didn't let it get in her way

Chorus:

     G chord diagramGG               D chord diagramDD/F# chord diagramF#F#                Em7 chord diagramEm7Em7               Cadd9 chord diagramCadd9Cadd9
e|-----------------------------------------------------------------------------|
B|--------3-----------------3------------------3-----------------3-------------|
G|----0-------0---0-----2-------2---2------0-------0---0-----0-------0---0-----| x4
D|-----------------------------------------------------------------------------|
A|---------------------------------------2---2---2---2-----3---3---3---3-------|
E|--3---3---3---3-----2---2---2---2--------------------------------------------|

Sometimes it all gets a little too much
But you gotta realize that soon the fog will clear up
And you don't have to be afraid because we're all the same
And we know that sometimes it all gets a little too much

Em7 chord diagramEm7Em7                        G chord diagramGG                Cadd9 chord diagramCadd9Cadd9     G chord diagramGG
And she would always tell herself she could do this
Em7 chord diagramEm7Em7                    G chord diagramGG                Cadd9 chord diagramCadd9Cadd9     G chord diagramGG
She would use no help, it would be just fine
Em7 chord diagramEm7Em7             G chord diagramGG                        Cadd9 chord diagramCadd9Cadd9     G chord diagramGG
But when it got hard, she would lose her focus
Em7 chord diagramEm7Em7             G chord diagramGG              Cadd9 chord diagramCadd9Cadd9
So take my hand and we'll be alright

                            Em7 chord diagramEm7Em7 G chord diagramGG Cadd9 chord diagramCadd9Cadd9
And she knew that she would be okay
                     Em7 chord diagramEm7Em7    G chord diagramGG   Cadd9 chord diagramCadd9Cadd9
So she didn't let it get in her way


G chord diagramGG               D chord diagramDD/F# chord diagramF#F#              Em7 chord diagramEm7Em7     Cadd9 chord diagramCadd9Cadd9
Sometimes it all gets a little too much
             G chord diagramGG                 D chord diagramDD/F# chord diagramF#F#           Em7 chord diagramEm7Em7       Cadd9 chord diagramCadd9Cadd9
But you gotta realize that soon the fog will clear up
                     G chord diagramGG        D chord diagramDD/F# chord diagramF#F#           Em7 chord diagramEm7Em7             Cadd9 chord diagramCadd9Cadd9
And you don't have to be afraid because we're all the same
                G chord diagramGG                D chord diagramDD/F# chord diagramF#F#              Em7 chord diagramEm7Em7   Cadd9 chord diagramCadd9Cadd9
And we know that sometimes it all gets a little too much, yeah

Em7 chord diagramEm7Em7   G chord diagramGG   Cadd9 chord diagramCadd9Cadd9

             Em7 chord diagramEm7Em7   G chord diagramGG   Cadd9 chord diagramCadd9Cadd9
A chord diagramAA little too much
                    Em7 chord diagramEm7Em7 G chord diagramGG Cadd9 chord diagramCadd9Cadd9   Em7 chord diagramEm7Em7   G chord diagramGG   Cadd9 chord diagramCadd9Cadd9
I said a little too much,         ohhhhhh

      G chord diagramGG        D chord diagramDD/F# chord diagramF#F#     Em7 chord diagramEm7Em7      Cadd9 chord diagramCadd9Cadd9
e|---------------------------------------------------------------------------------|
B|----3--------3--------3--------3-------------------------------------------------|
G|----0--------2--------0--------0-------------------------------------------------| x2
D|---------------------------------------------------------------------------------|
A|----------------------2--------3-------------------------------------------------|
E|----3--------2-------------------------------------------------------------------|

Sometimes it all gets a little too much
But you gotta realize that soon the fog will clear up

     G chord diagramGG               D chord diagramDD/F# chord diagramF#F#                Em7 chord diagramEm7Em7               Cadd9 chord diagramCadd9Cadd9
e|-----------------------------------------------------------------------------|
B|--------3-----------------3------------------3-----------------3-------------|
G|----0-------0---0-----2-------2---2------0-------0---0-----0-------0---0-----| x2
D|-----------------------------------------------------------------------------|
A|---------------------------------------2---2---2---2-----3---3---3---3-------|
E|--3---3---3---3-----2---2---2---2--------------------------------------------|

And you don't have to be afraid because we're all the same
And we know that sometimes it all gets a little too much, yeah


G chord diagramGG               D chord diagramDD/F# chord diagramF#F#              Em7 chord diagramEm7Em7     Cadd9 chord diagramCadd9Cadd9
Sometimes it all gets a little too much
             G chord diagramGG                 D chord diagramDD/F# chord diagramF#F#           Em7 chord diagramEm7Em7       Cadd9 chord diagramCadd9Cadd9
But you gotta realize that soon the fog will clear up
                     G chord diagramGG        D chord diagramDD/F# chord diagramF#F#           Em7 chord diagramEm7Em7             Cadd9 chord diagramCadd9Cadd9
And you don't have to be afraid because we're all the same
                G chord diagramGG                D chord diagramDD/F# chord diagramF#F#              Em7 chord diagramEm7Em7   Cadd9 chord diagramCadd9Cadd9          G chord diagramGG
And we know that sometimes it all gets a little too much, yeah

Other versions of A Little Too Much

A little too muchChords
A little too much (Ver. 2)Chords
A little too much live versionChords

Almost there ...

Sign in to get your own page with links to favourite songs and more. You are just one click away...

Login with Facebook Login with Google