Log in

One click and you are in

Login with Facebook Login with Google

Why sign up and log in

Guitar Tabs Explorer
Men I Trust bass tabs for Show me how

Bass tabs

Tuning: Standard (E A D G)

Key: A

Difficulty: Intermediate
Intro:

G|------------------------------------------------------------------|
D|-----------7/9-7-5----7-------------------------------------------|
A|-0----0-0---------------5/7\5-3/5--------------3-3/7-5--3-5/7-3/5-|
E|----------------------------------1----1-1-1/5--------------------|

G|-----------------------------------------------------------------|
D|-----------7/9-7-5----7------------------------------------------|
A|-0----0-0---------------5/7\5-3/5----------------1---------------|
E|----------------------------------1----1-1-4-4/5-----------------|


Verse:

G|------------------------------------------------------------------|
D|------------------------------------------------------------------|
A|-0----0-0---0-3-------3-3-5-5/7-3--------------3-3/7-5--3-5/7-3/5-| x2
E|----------3-----------------------1----1-1-1/5--------------------|

G|------------------------------------------------------------------|
D|-----------7/9-7-5----7-------------------------------------------|
A|-0----0-0---------------5/7\5-3/5--------------3-3/7-5--3-5/7-3/5-|
E|----------------------------------1----1-1-1/5--------------------|

G|-----------------------------------------------------------------|
D|-----------7/9-7-5----7------------------------------------------|
A|-0----0-0---------------5/7\5-3/5----------------1---------------|
E|----------------------------------1----1-1-4-4/5-----------------|


Chorus:

G|------------------------------------------------------------|
D|---------------3--3--3-3-2-0---0--0--0-0-2-3-2--2--2-2-2----|
A|-0--0--0-0-5/7---------------3------------------------------|
E|----------------------------------------------------------3-|

G|------------------------------------------------------------|
D|---------------3--3--3-3-2-0---0--0--0-0-2-3-2--2-----------|
A|-0--0--0-0-5/7---------------3------------------------------|
E|----------------------------------------------------------3-|

Interlude:

G|------------------------------------------------------------------|
D|-----------7/9-7-5----7-------------------------------------------|
A|-0----0-0---------------5/7\5-3/5--------------3-3/7-5--3-5/7-3/5-|
E|----------------------------------1----1-1-1/5--------------------|


Verse:

G|------------------------------------------------------------------|
D|------------------------------------------------------------------|
A|-0----0-0---0-3-------3-3-5-5/7-3--------------3-3/7-5--3-5/7-3/5-|
E|----------3-----------------------1----1-1-1/5--------------------|

G|------------------------------------------------------------------|
D|-----------7/9-7-5----7-------------------------------------------|
A|-0----0-0---------------5/7\5-3/5--------------3-3/7-5--3-5/7-3/5-|
E|----------------------------------1----1-1-1/5--------------------|


Bridge:

G|--------------------------------------------------------|
D|--------------------------------------------------------|
A|-------------------------3--5----5-5-7-8-7----5-7-5-----|
E|-1----1-1-1-5-3----3-3-5--5-------------------------3-5-|

G|--------------------------------------------------------|
D|--------------------------------------------------------|
A|-------------------------3--5----5-5-7-8-7--------------|
E|-1----1-1-1-5-3----3-3-5--5---------------------------3-|


Chorus:

G|------------------------------------------------------------|
D|---------------3--3--3-3-2-0---0--0--0-0-2-3-2--2--2-2-2----|
A|-0--0--0-0-5/7---------------3------------------------------|
E|----------------------------------------------------------3-|

G|------------------------------------------------------------|
D|---------------3--3--3-3-2-0---0--0--0-0-2-3-2--2--2-2-2----|
A|-0--0--0-0-5/7---------------3------------------------------|
E|----------------------------------------------------------1-|

G|-----------------------------------------------------------|
D|-----------------------------------------------------------|
A|-4--4--3--3--2--2--1--1--0---------------------------------|
E|----------------------------------0------------------------|


Outro:
(Same as Intro)
G|------------------------------------------------------------------|
D|-----------7/9-7-5----7-------------------------------------------|
A|-0----0-0---------------5/7\5-3/5--------------3-3/7-5--3-5/7-3/5-|
E|----------------------------------1----1-1-1/5--------------------|

G|-----------------------------------------------------------------|
D|-----------7/9-7-5----7------------------------------------------|
A|-0----0-0---------------5/7\5-3/5----------------1---------------|
E|----------------------------------1----1-1-4-4/5-----------------|


************************************

| / Slide up
| \ Slide down

************************************

Almost there ...

Sign in to get your own page with links to favourite songs and more. You are just one click away...

Login with Facebook Login with Google