Log in

One click and you are in

Login with Facebook Login with Google

Why sign up and log in

Guitar Tabs Explorer
Melvins tabs for Your blessened

Guitar tabs

Melvins - Your Blessened

:ben.nield@gmail.com:


intro
   1     2     3     4     1     2     3     4     1     2     3     4     1     2      3     4     1
e|------------------------------------------------------------------------------------------------------
b|------------------------------------------------------------------------------------------------------
g|------------------------------------------------------------------------------------------------------
d|-------------------------------------------------------6----------------------------------------------
a|-4^----------0----4b-----------------4--4--4--4--4--5--------5-----7b---------------------------------
e|-4^----------0----4b-----------------4--4--4--4--------------5-----7b---------------------------------
               .
e|-------------------------------------------------------------------------------------------------
b|-------------------------------------------------------------------------------------------------
g|-------------------------------------------------------------------------------------------------
d|-------------------------------------------------------6-----------------------------------------
a|-4^----------0----4b-----------------4--4--4--4--4--5--------5-----7b---9--10-9--10--9--10b------
e|-4^----------0----4b-----------------4--4--4--4--------------5-----7b----------------------------
               .
e|-------------------------------------------------------------------------
b|-------------------------------------------------------------------------
g|-------------------------------------------------------------------------
d|-------------------------------------------------------6-----------------
a|-4^----------0----4b-----------------4--4--4--4--4--5--------5-----7b----
e|-4^----------0----4b-----------------4--4--4--4--------------5-----7b----
               .
   1     2     3     4     1     2     3     4     1     2     3     4     1     2     3     4     1     2
e|-------------------------------------------------------------------------------------------------------------
b|-------------------------------------------------------------------------------------------------------------
g|-------------------------------------------------------------------------------------------------------------
d|-----------------------------------------------------------12br----------------------------------------------
a|-0-----0-----0-----12b---------------0-----0-----0-----12----------0--0--0--0--12br----0--0--0--0-12b--------
e|-0-----0-----0-----12b---------------0-----0-----0-----12----------0--0--0--0--12br----0--0--0--0-12b--------
   .     .     .                       .     .     .                 .  .  .  .          .  .  .  .

  "I     like  your  hands..."
e|-------------------------------------------------------------------------------------------------
b|-------------------------------------------------------------------------------------------------
g|-------------------------------------------------------------------------------------------------
d|-------------------------------------------------------------------------------------------------  X2
a|-0-----0-----0-----12---------0-----0-----0-----12---------0--0--0--0--12br----0--0--0--0-12b----
e|-0-----0-----0-----12---------0-----0-----0-----12---------0--0--0--0--12br----0--0--0--0-12b----
   .     .     .                .     .     .                .  .  .  .          .  .  .  .

   1     2     3     4     1     2     3     4     1     2     3
e|--------------------------------------------------------------------
b|--------------------------------------------------------------------
g|--------------------------------------------------------------------
d|--------------------------------------------------------------------
a|-0-----0-----0-----12-----------------------------------------------
e|-0-----0-----0-----12-----------------------------------------------
   .     .     .

   1   2   3   4   1   2   3   4   1   2   3   4   1   2   3   4   1   2   3   4   1   2
e|-----------------------------------------------------------------------------------------
b|-----------------------------------------------------------------------------------------
g|-----------------------------------------------------------------------------------------
d|-----------------------------------------------------------------------------------------
a|-10----------11----------0---0---12-------------------------------10----------11---------
e|-10----------11----------0---0---12-------------------------------10----------11---------
                           .   .

   1   2   3   4   1   2   3   4   1   2   3   4   1   2   3   4   1
e|----------------------------------------------------------------------
b|----------------------------------------------------------------------
g|----------------------------------------------------------------------
d|----------------------------------------------------------------------
a|-0---0---0---12------0---0---0---12------0-0-0-0-12br----0-0-0-0-12b--
e|-0---0---0---12------0---0---0---12------0-0-0-0-12br----0-0-0-0-12b--
   .   .   .           .   .   .           . . . .         . . . .

bridge
   1     2     3     4     1     2     3
e|-------------------------------------------
b|-------------------------------------------
g|-------------------------------------------
d|-------------------------------------------
a|-9--9--10-10-9--9--7--7--10-10-9--9--------
e|-9--9--10-10-9--9--7--7--10-10-9--9--------
   .  .  .  .  .  .  .  .  .  .  .  .

   1     2     3     4     1     2     3     4     1     2     3     4
e|-------------------------------------------------------------------------
b|-------------------------------------------------------------------------
g|-------------------------------------------------------------------------
d|-------------------------------------------------------------------------
a|-9--9--10-10-9--9--7--7--12-12-11-11-7--7--10-10-9--9--5--5--8--8--7--7--
e|-9--9--10-10-9--9--7--7--12-12-11-11-7--7--10-10-9--9--5--5--8--8--7--7--
   .  .  .  .  .  .  .  .  .  .  .  .  .  .  .  .  .  .  .  .  .  .  .  .

pre-solo (X3)
   1     2     3     4     1     2     3     4     1
e|--------------------------------------------------------
b|--------------------------------------------------------
g|--------------------------------------------------------
d|--------------------------------------------------------
a|-10----12----10----12b---------10----12----10----12b----
e|-10----12----10----12b---------10----12----10----12b----

   1     2     3     4     1     2     3
e|-------------------------------------------
b|-------------------------------------------
g|-------------------------------------------
d|-------------------------------------------
a|-10h12-12-12-10~---------10h12-12-12-10----
e|-10h12-12-12------12~----10h12-12-12-------

3rd time round play this instead of second bar
   1     2     3     4     1     2     3     4     1     2     3     4
e|--------------------------------------------------------------------------
b|--------------------------------------------------------------------------
g|-------------------------------------10-----------------------------------
d|-------------------------------10h12-10--12--12--14b----------------------
a|-10h12-12-12-10~---------10h12-10h12-----12--12--12b----------------------
e|-10h12-12-12------12~----10h12--------------------------------------------

then
   1     2     3     4     1     2     3     4     1     2     3     4
e|--------------------------------------------------------------------------
b|--------------------------------------------------------------------------
g|--------------------------------------------------------------------------
d|-12----10----12----14b---------------------14b---14b---------------14b----
a|-12----10----12----12b---------12-12-12-12-12b---12b---12-12-12-12-12b----
e|-------------------------------12-12-12-12-------------12-12-12-12--------

   1     2     3     4     1     2     3     4     1     2     3     4     1     2     3     4     1
e|--------------------------------------------------------------------------------------------------------
b|--------------------------------------------------------------------------------------------------------
g|--------------------------------------------------------------------------------------------------------
d|-10-----12----------14b--------12----10----12----14b---------------------14b---14b---------------14b----
a|-10-----12----10----12b--------12----10----12----12b---------12-12-12-12-12b---12b---12-12-12-12-12b----
e|--------------10---------------------------------------------12-12-12-12-------------12-12-12-12--------

   1     2     3     4     1     2     3     4     1     2     3     4     1     2     3     4     1     2
e|------------------------------------------------------------------------------------------------------------
b|------------------------------------------------------------------------------------------------------------
g|------------------------------------------------------------------------------------------------------------
d|(14b)------let---------------------------------------------------------------------------------------------
a|(12b)----------ring----------------------------------------------------------------------------------------
e|------------------------------------------------------------------------------------------------------------


solo
   1     2     3     4     1     2     3     4     1     2     3     4
e|--------------------------------------------------------------------------
b|-13h15p13h15p13h15p13h15p13h15p13h15p13h15p11~~~~~~~~~~~~~~~~~~~~~~~~~~~~~
g|--------------------------------------------------------------------------
d|--------------------------------------------------------------------------
a|--------------------------------------------------------------------------
e|--------------------------------------------------------------------------

   1     2     3     4     1     2     3     4     1     2     3     4
e|--------------------------------------------------------------------------
b|(11)~~~~~~~~~~~~~~~~~~~~~~~~~~~~~~~~~~~~~~~~~~~~--------------------------
g|--------------------------------------------------------------------------
d|------------------------------------------------(0)----ring + feedback----
a|-------------------------------------------------5------for 5:20 mins-----
e|--------------------------------------------------------------------------

then
   1     2     3     4     1     2     3     4     1     2     3     4     1     2     3     4
e|--------------------------------------------------------------------------------------------------
b|--------------------------------------------------------------------------------------------------
g|--------------------------------------------------------------------------------------------------
d|--------------------------------------------------------------------------------------------------
a|-9-----------------9-----------7--7--9-----7-----9-----------0--0--9-----------9--9--10-10-12-12--
e|-9-----------------9-----------7--7--9-----7-----9-----------0--0--9-----------9--9--10-10-12-12--
                                                               .  .

  1     2     3     4     1     2     3     4     1     2     3     4     1     2     3     4
e|-------------------------------------------------------------------------------------------------
b|-------------------------------------------------------------------------------------------------
g|-------------------------------------------------------------------------------------------------
d|-------------------------------------------------------------------------------------------------
a|-11---------0--0--11----------9--9--11-11-9--9--11----------------11----------------0------------
e|-11---------0--0--11----------9--9--11-11-9--9--11----------------11----------------0------------
              .  .                                                                    .

  1     2     3     4     1     2     3     4     1     2     3     4     1     2     3     4
e|-------------------------------------------------------------------------------------------------
b|-------------------------------------------------------------------------------------------------
g|-------------------------------------------------------------------------------------------------
d|-------------------------------------------------------------------------------------------------
a|-11----------0--0-11----------11----11----11-11-11p9--9--9-----9--9-----------9-----9-----9--9---
e|-11----------0--0-11----------11----11----11-11-11p9--9--9-----9--9-----------9-----9-----9--9---
               .  .

  1     2     3     4     1     2     3     4     1     2     3     4     1     2
e|------------------------------------------------------------------------------------
b|------------------------------------------------------------------------------------
g|------------------------------------------------------------------------------------
d|------------------------------------------------------------------------------------
a|-8----------0--0--8-----------8--8--8--8--9-----------------3-----------0-----3-----
e|-8----------0--0--8-----------8--8--8--8--9-----------------3-----------0-----3-----
              .  .                                                        .
e|-------------------------------------------------------------------------------------------------------------
b|-------------------------------------------------------------------------------------------------------------
g|-------------------------------------------------------------------------------------------------------------
d|-------------------------------------------------------------------------------------------------------------
a|-0-----0-----0-----12b---------------0-----0-----0-----12b---------0--0--0--0--12br----0--0--0--0-12b--------
e|-0-----0-----0-----12b---------------0-----0-----0-----12b---------0--0--0--0--12br----0--0--0--0-12b--------
   .     .     .                       .     .     .                 .  .  .  .          .  .  .  .
e|-------------------------------------------------------------------------------------------------------------
b|-------------------------------------------------------------------------------------------------------------
g|-------------------------------------------------------------------------------------------------------------
d|-------------------------------------------------------------------------------------------------------------
a|-0-----0-----0-----12b---------------0-----0-----0-----12b---------0--0--0--0--12br----0--0--0--0-12b--------
e|-0-----0-----0-----12b---------------0-----0-----0-----12b---------0--0--0--0--12br----0--0--0--0-12b--------
   .     .     .                       .     .     .                 .  .  .  .          .  .  .  .

e|-------------------
b|-------------------
g|-------------------
d|-------------------
a|-0-----0-----0-----   Fin.
e|-0-----0-----0-----
   .     .     .

Almost there ...

Sign in to get your own page with links to favourite songs and more. You are just one click away...

Login with Facebook Login with Google