With Teeth by Melvins

With Teeth tab by Melvins

Guitar tabs

With Teeth  by The Melvins


ben.nield@g.mail.com


(Drop-D)


Intro - play twice

g-5-------5-----5---5-------------|
D-5-------5-----5---5-------------|
A-3-------3-----3---3-------------|
D---0-0-0---0-0---0---0-0-0-0-0-0-|
  x x x  x x  x  x x x x x x

Riff 1 - repeat about 9 or 10 times

 1  +  2  +  3  +  4  +   1  +  2  +  3  +  4  +
g-5-----------4-----------5-------|-5-----------9-----------5-------|
D-5-----------4-----------5-------|-5-----------9-----------5-------|
A-3-----------2-----------3---0---|-3-----------7-----------3-------|
D-0-----------0-----------0---0---|-0-----------0-----------0-------|

---------7---------------7--------|-7-----------7-----------7-------|
---------7---------------7--------|-7-----------7-----------7-------|
---------5-----------0---5---0----|-5-----------5-------0---5---0---|
-0-0-0---0-----------0---0---0----|-0-----------0-------0---0---0---|
 x x x

"You got the part that's slippin now
It's a tiny bit nasty
But it's a part now just the same
I give them time to make it right
Lord knows I'm gonna let it fly
I know it's not very evil
But you've just got to learn to let it go
Sometimes when the heart beats wide
You can take it on the doves"

Riff 2 - repeat 3 times

 1  +  2  +  3  +  4  +   1  +  2  +  3  +  4  +
g---------------------------------|---------------------------------|
D---------------------------------|-6-------6---6-------6---6-------|
A-0-0-0-0-0-0-6-------6---6---6-6-|-6-------6---6-------6---6-------|
D-0-0-0-0-0-0-6-------6---6---6-6-|-6-0-0-0-6-0-6-0-0-0-6-0-6-0-0-0-|
                   x x x  x  x x x  x  x x x

Then

D-----|
A-0-0-|
D-0-0-| "Like siz the well-known water,

Like siz the well-
 known war!"
D------------|
A------------|
D-2/----12---|

g---------------------------------|-----|
D---------------------------------|-----|
A-0-0-0-0-0-0-6-------6---6---6-6-|-0-0-|
D-0-0-0-0-0-0-6-------6---6---6-6-|-0-0-| "Like siz the well known water,
					       Like siz the well known war!"

Find guitar tabs and chords

A B C D E F G H I J K L M N O P Q R S T U V W X Y Z #