Log in

One click and you are in

Login with Facebook Login with Google

Why sign up and log in

Guitar Tabs Explorer
Melvins tabs for We all love judy

Guitar tabs with lyrics

"We all love JUDY"
                             ------------------------
                              the Melvins (the maggot)
                         ----------------------------------

 <tabbed by: tim.straub@web.de>

 dropped d (e-string)
 Intro:

   d|--------------------------------------------------|
   a|--0--0--3--0--3--0--0--3--0--3--0--3--0--1--2--3--|
   d|--0--0--3--0--3--0--0--3--0--3--0--3--0--1--2--3--|
       .  .     .     .  .     .     .
   g|--------------------------------------8--8--8--8--|
   d|--------------------------------------8--8--8--8--|
   a|--0--0--3--0--6\-5-----5-----3-/5\-3--6--6--6--6--|
   d|--0--0--3--0--6\-5--x--5--x--3-/5\-3--------------|
       .  .     .


   d|--------------------------------------------------|
   a|--0--0--3--0--3--0--0--3--0--3--0--3--0--1--2--3--|
   d|--0--0--3--0--3--0--0--3--0--3--0--3--0--1--2--3--|
       .  .     .     .  .     .     .


   d|--------------------------------------------------|
   a|--6--3--5-----5--3--5--6-----5-----3-----1--3--1--|
   d|--6--3--5--x--5--3--5--6--x--5--x--3--x--1--3--1--|

             repeat the whole intro once

 Riff 1:

   d|----------------------------------------------------|
   a|--0--0--0--0--3--0--0--1--0--0--3--0--4...----------|
   d|--0--0--0--0--3--0--0--1--0--0--3--0----------------|
       .  .  .  .     .  .     .  .     .

   d|----------------------------------------------------|
   a|-0---0--0--1--0--0--1-/3-----3-----4-----3-----3p-0-|
   d|-0---0--0--1--0--0--1-/3--x--3--x--4--x--3--x--3p-0-|
      .   .  .     .  .

   d|----------------------------------------------------|
   a|----0--0--3--0--0--1--0--0--3--0------4...----------|
   d|----0--0--3--0--0--1--0--0--3--0--------------------|
         .  .     .  .     .  .     .

   d|----------------------------------------------------|
   a|-0---0--0--1--0--0--1-/3--x--3--x--4--x--2-/3-------|
   d|-0---0--0--1--0--0--1-/3--x--3--x--4--x--2-/3-------|
          .  .     .  .

               repeat riff 1 once


 Bridge:

  h|------------------8--------|
  g|------------------8--------|
  a|--0-0-0-6---6-----6-----7--|
  d|--0-0-0-6---6--x-----x--7--|

  a|--------------5--------------3--------3-----------------2--3--2--------------------|
  d|--7--7--5--7-----7--6--4--5-----5--5-----5--4--3--2--3-----------3--2--1--2--3--4--|


  a|-----------3--x--4--x--5--3-----3-----------------2-----3--2-----------------------|
  d|--5--x--x--------------------5-----5--4--3--2--3-----3--------3--2--1--2--1--3--0--|


 Riff 2:

  a|--0--3--0--1/-3--0--6--0--5--0--3/-5--0--6\-5--|   DonĀ“t play (0) while repeating
  d|--0--3--0--1/-3--0--6--0--5--0--3/-5--0--6\-5--|
      .     .        .     .     .        .


  a|--0--0--3--0--4\-3--0--0--3--0--1/-3--0--6--0--5--0--3/-5\-3--0-h3p-0--|
  d|--0--0--3--0--4\-3--0--0--3--0--1/-3--0--6--0--5--0--3/-5\-3--0-h3p-0--|
      .  .     .        .  .     .        .     .     .

              		repeat riff 2 directly x12


   Explanations:

 |-6p5-|  = pull off           |-0..-|  = let ring            |--7\-|  = slide down


 |-3h5-|  = hammer on          |-0-0-|  = palm mute           |-/7--|  = slide up
                                 . .

                               |--x--|  = finger mute

Almost there ...

Sign in to get your own page with links to favourite songs and more. You are just one click away...

Login with Facebook Login with Google