The Anti Vermin Seed by Melvins

The Anti Vermin Seed tab by Melvins

Guitar tabs

the melvins.the anti-vermin seed
]
] (-(-ben.nield@gmail.com-)-)
]

bassline:
  1 + 2 + 3 + 4 + 1 + 2 + 3 + 4 +
G|-------------------------------------------------
D|-------------------------------------------------
A|-------------------------------------------------
D|-0--0--0--0--0-----0--0-----0-----0-----0--0--0--

G]-------------------------------------------------
D]-------------------------------------------------
A]-------------------------------------------------
D]-3--------3--3/-5--5--------5--5--0--2-----2--2--


after 7.06 mins of hypnotic bassline and various
noises, guitar plays something like this:
  1 + 2 + 3 + 4 + 1 + 2 + 3 + 4 +
e|-------------------------------------------------
B|-------------------------------------------------
G|-------------------------------------------------
D|-------------------------------------------------
A|-------------------------------------------------
D|-------------------------------12----------------

e|-------------------------------------------------
B|-------------------------------------------------
G|-------------------------------------------------
D|-------------------------------------------------
A|-------------------------------------------------
D|---12-9--9/-16-16---16-12-12-9--9/-12--12-----

  1 + 2 + 3 + 4 + 1 + 2 + 3 + 4 +
e|-------------------------------------------------
B|-------------------------------------------------
G|-------------------------------------------------
D|-------------------------------------------------
A|-------------------------------------------------
D|----------------------------------------12--129-

e|-------------------------------------------------
B|-------------------------------------------------
G|-------------------------------------------------
D|-------------------------------------------------
A|-------------------------------------------------
D|-9-7--7------9--9h10--10p9--9-----9p-7----------


  1 + 2 + 3 + 4 + 1 + 2 + 3 + 4 +
e|-------------------------------------------------
B|-------------------------------------------------
G|-------------------------------------------------
D|-------------------------------------------------
A|-------------------------------------------------
D|----------------------------------------7p-9--7/-

e|-------------------------------------------------
B|-------------------------------------------------
G|-------------------------------------------------
D|-------------------------------------------------
A|-------------------------------------------------
D|-12-------12p13-12-129--9-7--7-5--5-----------

  1 + 2 + 3 + 4 + 1 + 2 + 3 + 4 +
e|-------------------------------------------------
B|-------------------------------------------------
G|-------------------------------------------------
D|-------------------------------------------------
A|-------------------------------------------------
D|------------------------------------(7p-9--7/-12)

e|-------------------------------------------------
B|-------------------------------------------------
G|-------------------------------------------------
D|-------------------------------------------------
A|-------------------------------------------------
D|-------------------------------------------------

  1 + 2 + 3 + 4 + 1 + 2 + 3 + 4 +
e|-------------------------------------------------
B|-------------------------------------------------
G|-------------------------------------------------
D|-------------------------------------------------
A|-------------------------------------------------
D|-------------------------12-12/15-------15-15/17-

e|-------------------------------------------------
B|-------------------------------------------------
G|-------------------------------------------------
D|-------------------------------------------------
A|-------------------------------------------------
D|-17-1712-12-12/19-19-1917--------171512------

continues with reverse guitar and improvisation, followed by disembodied vocals.

at 11:44 there's a break:
  1 + 2 + 3 + 4 + 1 + 2 + 3 + 4 +
e|-------------------------------------------------
B|-------------------------------------------------
G|-------------------------------------------------
D|-7--7--7--7--7--x--10-------10-10-10-10----10-x--
A|-5--5--5--5--5--x--8--------8--8--8--8-----10-x--
D|-------------------------------------------------

e|-------------------------------------------------
B|-------------------------------------------------
G|-------------------------------------------------
D|-5--5--5--5--5-----10-------10-10-10-10----10-x--
A|-3--3--3--3--3-----8--------8--8--8--8-----8--x--
D|-------------------------------------------------

e|-------------------------------------------------------------------------
B|-------------------------------------------------------------------------
G|-------------------------------------------------------------------------
D|-7--7--7--7--7--x--5--5--5--5--5-----------------------------------------
A|-5--5--5--5--5--x--3--3--3--3--3-----2--3--2--3--2-----2-----2-----3-----
D|----------------------------------0-----------------0-----0-----0--3-----
                  .         .   .   .
followed by more vocals.


outro - repeat 5x:
  1 + 2 + 3 + 4 + 1 + 2 + 3 + 4 +
e|-------------------------------------------------
B|-------------------------------------------------
G|-------------------------------------------------
D|-7--7--7--7--7-----7--7--7--7--7-----7--7--7--x--
A|-5--5--5--5--5-----5--5--5--5--5-----5--5--5--x--
D|-------------------------------------------------

e|-------------------------------------------------
B|-------------------------------------------------
G|-------------------------------------------------
D|-10-------10-10-10-5-----5--5--5--5--------5--5--
A|-8--------8--8--8--3-----3--3--3--3--------3--3--
D|-------------------------------------------------

  1 + 2 + 3 + 4 + 1 + 2 + 3 + 4 +
e|-------------------------------------------------
B|-------------------------------------------------
G|-------------------------------------------------
D|-10----x--12-------7--------7--7--7--7-------xxx-
A|-8-----x--10-------5--------5--5--5--5----5--xxx-
D|-------------0--0--------------------------------
        . .
e|-------------------------------------------------
B|-------------------------------------------------
G|-------------------------------------------------
D|-10-10----5-----5--5--5--7--7--7--7--7-----------
A|-8--8-----3-----3--3--3--5--5--5--5--5-----------
D|-------0-----------------------------------------
     .

Find guitar tabs and chords

A B C D E F G H I J K L M N O P Q R S T U V W X Y Z #