Log in

One click and you are in

Login with Facebook Login with Google

Why sign up and log in

Guitar Tabs Explorer
Melvins tabs for Teet

Guitar tabs

Teet
 by the melvins

tabbed by John Lavey
Remarks: there is drop A chord diagramD MajorD tuning, the bass is arranged for guitar

         x= muted

d--x-x-x-x-x---x------|x-x-x-x-x---x-----|
a--x-x-x-x-x-9-x-15---|x-x-x-x-x-9-x-15--|
d--x-x-x-x-x-9-x-15---|x-x-x-x-x-9-x-15--| Then theres a bunch of feedback for 4 bars

d-------------------------------------------|
a--10-10-10--13-13--7-7--9-9-9-9-7-9-7-9-7--|
d--10-10-10--13-13--7-7--9-9-9-9-7-9-7-9-7--| play this twice then, do it this way:

d-------------------------------------------|
a--10-10-10--13-13--7-7-9-9-9-9-7--3-3-3----|
d--10-10-10--13-13--7-7-9-9-9-9-7--3-3-3/15-|

d-----------------------|
a--7-9-9-9-9-7--3-3-----| 2x
d--7-9-9-9-9-7--3-3/15--|


then the bass plays
d------------------------------------------|
a--10-10-10--13-13--7-7-9-9-9-9-7-9-7-9-7--| 2x
d--10-10-10--13-13--7-7-9-9-9-9-7-9-7-9-7--|

d-----------------------------------------------------------------------|
a--10-10-10-13-13--7-7-7-7-7-7--x-x-x-x-x-x-9-x-----x-x-x-x-x-x-9-x-----|
d--10-10-10-13-13--7-7-7-7-7-7--x-x-x-x-x-x-9-x-15--x-x-x-x-x-x-9-x-15--|

Then feedback for the end.

Almost there ...

Sign in to get your own page with links to favourite songs and more. You are just one click away...

Login with Facebook Login with Google