GuitarTabsExplorer icon
GuitarTabsExplorer icon

Log in

Songbook

  • Log in to add and see bookmarks

Last visited songs

  • No songs visited yet...
Sky Pup by Melvins

Bass tabs

Sky Pup


The Intro/Chorus
G ---------|-------------|---------|-------------|
D ---------|-------------|---------|-------------|
A ---------|-------------|---------|-------------|
E 3-32-343-|2-22-0-2-3-20|3-32-343-|2-22-0-2-3-20|


G ---------|-------------|---------|-------------|
D ---------|-------------|---------|-------------|
A ---------|-------------|---------|-------------|
E 3-32-343-|2-22-0-2-3-20|3-32-343-|0------------|
Verse
G ---------------|----------------|
D –7-75----------|----------------|
A -----76-5-454--|-------2-3-45585|
E 5------------54|3-3-323---------|


G ---------------|----------------|
D –75------------|------------54--|
A ---7654-54-----|-------2-3-4--54|
E 5---------54545|3-3-323---------|

G -------79-797--|----------------|
D –75-579------97|----------------|
A ---7-----------|-------2-3-4-585|
E 5--------------|3-3-323---------|

G ---------------|----------------|
D –75------------|------------54--|
A ---7654-54-----|-------2-3-4--54|
E 5---------54545|3-3-323---------|


Bridge Part 1

G --------------------|
D --------------------|
A –-7---7---7---7---77|
E 00-000-000-000-000--|


Bridge Part 2

G---------------|
D--------------5|
A –7------5-6-7-|
E 0-5-6-7-------|


Arrangement:

Intro
Verse
Chorus
Verse
Chorus
Bridge Part 1 (4x)
Bridge Part 2 played straight (4x)
Bridge Part 2 a little fancier (4x)
Chorus
Verse
Chorus (Hold the last E)

[ Privacy | About us ]

Welcome to the guitar community

Why join and log in?
- Get songbook with favourite songs
- Get custom made front page
- Submit chords and tabs
- Submit guitar-cover videos
- Get a lot of thumbs up for your work

Songbook

Last visited songs

Site
Home
Search
Community
Submit chords

Video

No video for this page. Check out how you can submit guitar-cover videos here

Search tabs and chords

Browse by artist

A B C D E F G H I J K L M N O P Q R S T U V W X Y Z #


Menu

Search

Video

Bookmark

Login