Log in

One click and you are in

Login with Facebook Login with Google

Why sign up and log in

Guitar Tabs Explorer
Melvins tabs for Set me straight

Guitar tabs

set me straight
--------------------------------------------------------------------------------
by: the melvins

tabbed by: Jlavey@netcom.com

A chord diagramE MajorE string goes to D.

+ = plam mute
~ = vibrato
d-------------------|
a--7-7-7-7-8-8-8-8--|  do this four times
d--7-7-7-7-7-7-7-7--|

d---------------------------------------------------------------------|
a--4-5--5-5-4--4-4-5--5-5-4---7------4-5--5-5-4--4-4-5--5-5-4--7------|
d--4-5--5-5-4--4-4-5--5-5-4---7------4-5--5-5-4--4-4-5--5-5-4--7--10--|


d----------------------------------------------------------------|
a--4-5--5-5-4--4-4-5--5-5-4--7------4-5--5-5-4--4-4-5--5-5-4--7--|
d--4-5--5-5-4--4-4-5--5-5-4--7------4-5--5-5-4--4-4-5--5-5-4--7--|


d---------------------------------------------------------------|
a--10---10-10-10-10--11-11-11--66 66 6 666 666 6--11-11-11--10--|  4 times
d--10---10-10-10-10--11-11-11--66 66 6 666 666 6--11-11-11--10--|
                               ++ ++ + +++ +++ +


d----------------------------------------------------------------------------------------|
a--4-5--5-5-4--4-4-5--5-5-4---7---------4-5--5-5-4--4-4-5--5-5-4--7-------------7-----7--|
d--4-5--5-5-4--4-4-5--5-5-4---7---10---4-5--5-5-4--4-4-5--5-5-4--7---9/10-10----10-------|


d---------------------------------------------------------------------|
a--4-5--5-5-4--4-4-5--5-5-4---7---8-7---4-5--5-5-4--4-4-5--5-5-4---7--|
d--4-5--5-5-4--4-4-5--5-5-4---7---------4-5--5-5-4--4-4-5--5-5-4---7--|


d---------------------------------------------------------------|
a--10--10-10-10-10--11-11-11-{66 66 6 666 666 6}--11-11-11--10--|  4 times
d--10--10-10-10-10--11-11-11-{66 66 6 666 666 6}--11-11-11--10--|
                              ++ ++ + +++ +++ +

Almost there ...

Sign in to get your own page with links to favourite songs and more. You are just one click away...

Login with Facebook Login with Google