Log in

One click and you are in

Login with Facebook Login with Google

Why sign up and log in

Guitar Tabs Explorer
Melvins tabs for Scared

Guitar tabs

Transcribed by Matt Snyder  msnyder@freenet.columbus.oh.us
email me for questions, comments, or if you're just really bored

                                 Scared
                             by the Melvins
                      from the Deep Six compilation
Normal tuning

/ = bend
\ = let bend down
Intro
---------------------------------------------------------------------
---------------------------------------------------------------------
---------------------------------------------------------------------
7--7-7--4--4-4--5-5-5-2---7--7-7--4--4-4--5-4-3-2--------------------
5--5-5--2--2-2--3-3-3-0---5--5-5--2--2-2--3-2-1-0--------------------
---------------------------------------------------------------------


---------------------------------------------------------------------
---------------------------------------------------------------------
---------------------------------------------------------------------
------------------------------------------------2--------------------
5--5-5--2--2-2--3-3-3-0---5--5-5--2--2-2--3-2-1-0--------------------
---------------------------------------------------------------------


Verse
---------------------------------------------------------------------
---------------------------------------------------------------------
---------------------------------------------------------------------
--2-2-2-2-2-2-2-2--5--5----------------------------------------------
--0-0-0-0-0-0-0-0--3--3--5--5-6-6------------------------------------
-------------------------3--3-4-4------------------------------------

I'm not sure what this part would be called
---------------------------------------------------------------------
---------------------------------------------------------------------
---------------------------------------------------------------------
--9-9-9-9-9-9-9-9-9-8-8-8-8-8-8-8-8----------------------------------
--7-7-7-7-7-7-7-7-7-6-6-6-6-6-6-6-6----------------------------------
---------------------------------------------------------------------

The second time you have to do this, it's different
---------------------------------------------------------------------
---------------------------------------------------------------------
---------------------------------------------------------------------
--9-9-9-9-9-9-9-9-8-9-10-11------------------------------------------
--7-7-7-7-7-7-7-7-6-7-8- 9-------------------------------------------
---------------------------------------------------------------------

After the 3rd verse, you play this
---------------------------------------------------------------------
---------------------------------------------------------------------
---------------------------------------------------------------------
---------------------------------------------------------------------
-7------------7--7-7-4--4-4-5-4-3-2----------------------------------
-5------------5--5-5-2--2-2-3-2-1-0----------------------------------


Solo
---------------------------------------------------------------------
---------------------------------------------------------------------
-------------------------------6--6-7/\-6----------------------------
-7-6-7-5-4-5-4------7-6-7--7-----------------------------------------
---------------5-7-------------------------7-------------------------
---------------------------------------------------------------------

                        msnyder@freenet.columbus.oh.us

Almost there ...

Sign in to get your own page with links to favourite songs and more. You are just one click away...

Login with Facebook Login with Google