Log in

One click and you are in

Login with Facebook Login with Google

Why sign up and log in

Guitar Tabs Explorer
Melvins tabs for Roadbull

Guitar tabs

roadbull
 by the melvins
from stoner witch

tabbed by jlavey@ix.netcom.com
with some help by tarch@primenet.com

Tuning=DADGBE       ^= HAMMER-ON


B--5-7--7-7--5-5-5-5--0--2-2-2-2--7--7-7-7--5-5-5-5--0--2-2-2-2--|
G--5-7--7-7--5-5-5-5--0--2-2-2-2--7--7-7-7--5-5-5-5--0--2-2-2-2--|
D----------------------------------------------------------------|
A----------------------------------------------------------------|
D----------------------------------------------------------------|


D------------------------------------------------|
A--0-0-0-0-3-5-0-0-6-0-0-10-13-12--6-6-6-6-10-5--|
D--0-0-0-0-3-5-0-0-6-0-0-10-13-12--6-6-6-6-10-5--|


B--5-7--7-7--5-5-5-5--0--2-2-2-2--|
G--5-7--7-7--5-5-5-5--0--2-2-2-2--|
D---------------------------------|
A---------------------------------|
D---------------------------------|


D------------------------------------------------|
A--0-0-0-0-3-5-0-0-6-0-0-10-13-12--6-6-6-6-10-5--|
D--0-0-0-0-3-5-0-0-6-0-0-10-13-12--6-6-6-6-10-5--|

B--5-7--7-7--5-5-5-5-----------------|
G--5-7--7-7--5-5-5-5-----------------|
D--------------------6-6-6-6-10-6-5--|
A--------------------6-6-6-6-10-6-5--|
D--------------------6-6-6-6-10-6-5--|


D-------------------------------------------------|
A--0-0-0-0-3-5-0-0-6-0-0-10-13-12--6-6-6-6-10-5-0-|
D--0-0-0-0-3-5-0-0-6-0-0-10-13-12--6-6-6-6-10-5-0-|


BASS PLAYS A chord diagramA augmentedA FEW LINES


p.m.

D--X-X-X-X-X-X-X-X-X-X-X-X-X-X-X-X-X-X-X-X-13-X-X-13--|
A--X-X-X-X-X-X-X-X-X-X-X-X-X-X-X-X-X-X-X-X-13-X-X-13--|REPEAT 5 TIMES
D--X-X-X-X-X-X-X-X-X-X-X-X-X-X-X-X-X-X-X-X-13-X-X-13--|


BASS PLAYS SOME MORE


B--5^7-7-7-7-5----------------------------------------------------|
G-------------7--7-7-7-7-5-4-------------------7-9--9-9-9-7----7--|
D----------------------------7--7-7-9-10-10-10--------------10----|
A-----------------------------------------------------------------|
D-----------------------------------------------------------------|


   Do this once more.

Almost there ...

Sign in to get your own page with links to favourite songs and more. You are just one click away...

Login with Facebook Login with Google