Log in

One click and you are in

Login with Facebook Login with Google

Why sign up and log in

Guitar Tabs Explorer
Melvins tabs for Raise a paw

Guitar tabs

Artist - Melvins
Song - Raise A chord diagramA augmentedA Paw
Album - Ozma
Tabbed by an18nin18
Tuning - Low to high - D, A, D, G, B, A chord diagramE MajorE

Fantastic song, would be even better if it was longer...


Intro -

|-------------------------------|
|-------------------------------|
|-------------------------------|
|-------------------------------|
|-------------------------------|
|-1-1-1-1-1-1-1-1-1-1-1-1-1-1-1-|
 Play 6 times

just a note about this intro, there seems to be a guitar playing an A chord diagramE MajorE

note (6th string, 2nd fret) in the intro as well as a guitar playing
the Eb.


Intro/Verse -

|-----------------------------------------------------|
|-----------------------------------------------------|
|-----------------------------------------------------|
|-----------------------------------------------------|
|-----------------------------------------------------|
|-1-1-1-1-1-1-1-1-5p1-1-1-1-1-1-1-1-5p1-1-1-1-1-1-1-1-|

|-----------------------|
|-----------------------|
|-----------------------|
|-----4-----5-5-----6-0-|
|---5-4--6--5-5--7--6-0-|
|-0---4-----5-5-----6-0-|

Repeat Intro/Verse

Pre-Chorus -

|----------------------------------------------------------------------|
|----------------------------------------------------------------------|
|----------------------------------------------------------------------|
|---4-----5-5-----6-0-9-9-0-10-10-11-11-0------------------------------|
|-5-4--6--5-5--7--6-0-9-9-0-10-10-11-11-0------------------------------|
|---4-----5-5-----6-0-9-9-0-10-10-11-11-0-12^-12^-12^-12^-12^-12-12-12-|

|-----------------|
|-----------------|
|-----------------|
|-----------------|
|-----------------|
|-12-12-12-12-12/-|


Chorus -

|-------------------------|
|-------------------------|
|-------------------------|
|-5-0-0-2-3-0-6~~-0---0-0-|
|-5-0-0-2-3-0-6~~-0---0-0-|
|-5-0-0-2-3-0-6~~-0---0-0-|
 Play 4 times

Post Chorus -

|-----------------|
|-----------------|
|-----------------|
|-0-0-0-0-0---6~~-|
|-0-0-0-0-0---6~~-|
|-0-0-0-0-0---6~~-|
 Play twice


Outro -

|-------------------------------------|
|-------------------------------------|
|-------------------------------------|
|-------------------------------------|
|-------------------------------------|
|-6-6-6-6-6-6-6-6-6-6-6-6-6-6-6-6-6-6-|
 Play 3 times

Almost there ...

Sign in to get your own page with links to favourite songs and more. You are just one click away...

Login with Facebook Login with Google