Log in

One click and you are in

Login with Facebook Login with Google

Why sign up and log in

Guitar Tabs Explorer
Melvins tabs for Pigs of the roman empire

Guitar tabs

"Pigs of the Roman Empire" by The Melvins


tune A chord diagramE MajorE string down to A chord diagramC majorC


First Riff

a-------1-3-------------------1--|
c-0---3-----3---5---0-3-5-0------|


2nd Riff

d---------------------------------
a-----------------------1-----3---
c-0-0-0-0-0-0-0-0-0-0-0---3-0-----

d---------4---------------4---------------------|
a---------------3-----------3-------------------|
c-0-0-0-0---------0-0-0-0-----0-5---3-5-5-3-5-3-|

Almost there ...

Sign in to get your own page with links to favourite songs and more. You are just one click away...

Login with Facebook Login with Google