Log in

One click and you are in

Login with Facebook Login with Google

Why sign up and log in

Guitar Tabs Explorer
Melvins bass tabs for Pearl bomb

Bass tabs

Melvins - Pearl Bomb

part 1, main riff
A-7------------------------------------------------------------------------------
E---0-0-0-0-0-7-0-6~---0-2-0-5-0-0-0-0-0-2-0-3-0-0-0-0-0-2-3-2-3-1-2-1-2-1-2-1-2-

part 2
A------------------------------------7---------
E-0-1-0-1-2-1-0-3-2-1-7-7-6---0-6-0---7-7-6-6-

part 3
A-------------------------------7-6---
E-0-0-0-0-0-0-0-0-0-0-0-0-0-0-0-----0-

A-7-6---7-6---7-6--6---6-6---
E----------------------------
ⓘ Bass guitar tab for 'Pearl Bomb' by Melvins, a sludge metal band formed in 1982 from Seattle, USA

Almost there ...

Sign in to get your own page with links to favourite songs and more. You are just one click away...

Login with Facebook Login with Google