Log in

One click and you are in

Login with Facebook Login with Google

Why sign up and log in

Guitar Tabs Explorer
Melvins tabs for Oven

Guitar tabs

Album: Ozma

This song is weird because of the rhythm. I try to indicate
that as clear as possible. Maybe I even got it about right.
Muted parts are indicated with x. Mute it heavily!

    1       2       3   +  4   +     1       2       3   +
E-|--------------------------------|------------------------|
B-|--------------------------------|------------------------|
G-|-3-------3---------4------4-----|-3-------3---------4----|repeat
D-|-3-------3---------4------4-----|-3-------3---------4----|1st bar
A-|-1-1-1-1-1-1-1-1---2------2-----|-1-1-1-1-1-1-1-1---2----|
E-|---0-0-0---0-0-0-0------0-------|---0-0-0---0-0-0-0------|
      x x x   x x x x      x           x x x   x x x x

   4/4       1  2  3  +   4    +                1 2  3  +  4
E-|--------|-----------------------|repeat     -------------------|
B-|--------|-----------------------|2 1/2x     -------------------|
G-|--------|-3--------------4------|           -3-----------------|
D-|--------|-3--------------4------|3rd        -3-----------------|
A-|-1------|-1--------------2------|ending:    -1-----------------|
E-|-0------|----------0-0-0--------|           ---------0-0-0-0---|
                      x x x                             x x x x

    1       2   4/4          1 2 3 4   +
E-|-----------|------------|-------------|
B-|-----------|no guitar---|-------------|
G-|-----------|for---------|-------------|
D-|-----------|8 measures--|-------------|
A-|-----------|------------|-------------|
E-|-0-0-0-0---|------------|-----------0-|
    x x x x                            x

   7/8      1   2   + 3 +    1    2    3  +
E-|-------|----------------|-----------------|
B-|-------|----------------|-----------------|
G-|-3-----|----------------|-3---------------|
D-|-3-----|----------------|-3---------------|
A-|-1-----|-1-1-----1------|-1----1-1--------|
E-|-------|-0-0-----0---0--|------0-0-----0--|
            x x     x   x         x x     x

   3/4      1    2       3       4
E-|-------|------------------------------|
B-|-------|------------------------------|
G-|-3-----|-3----------------------------|
D-|-3-----|-3----------------------------|
A-|-1-----|-1----1-------1-------1-------|
E-|-------|------0-0-0-0-0-0-0-0-0-0-0-0-|
                 x x x x x x x x x x x x

Riff A:                             End Riff A chord diagramA augmentedA

    1  2   +  3   +     1       2   + 3  +
E-|-------------------|---------------------|
B-|-------------------|---------------------|
G-|-------------------|---------------------|
D-|-2-----------------|---------------------|
A-|-2-----------------|-------2----------1--|
E-|-0------0------0-0-|-0-2-3---3-2-3-2-----|


   1        2  +   3   4                 4
E-|----------------------|Repeat  ----------------|
B-|----------------------|Riff A chord diagramA augmentedA  ----------------|
G-|----------------------|Add:    ----------------|
D-|----------------------|        ----------------|
A-|----------------------|        ----------------|
E-|-0-0-0-0----0-0-0-0---|        --------0-0-0-0-|
    x x x x    x x x x                    x x x x

   Repeat Riff A, then:

    1       2       3      1       2       3       4
E-|----------------------|---------------------------------|----|
B-|----------------------|---------------------------------|----|
G-|----------------------|---------------------------------|----|
D-|----------------------|---------------------------------|----|
A-|-1-------1------------|-1-------1-------1-------1-------|-1--|
E-|-0-0-0-0-0-0-0-0------|-0-0-0-0-0-0-0-0-0-0-0-0-0-0-0-0-|-0--|
    x x x x x x x x        x x x x x x x x x x x x x x x x   x
ⓘ Guitar tab for 'Oven' by Melvins, a sludge metal band formed in 1982 from Seattle, USA

Almost there ...

Sign in to get your own page with links to favourite songs and more. You are just one click away...

Login with Facebook Login with Google