Log in

One click and you are in

Login with Facebook Login with Google

Why sign up and log in

Guitar Tabs Explorer
Melvins tabs for Night goat

Guitar tabs

Night Goat


Tuning - Low To High - D, A, D, G, B, A chord diagramE MajorE

I saw the other tab in the archive and it sucked, heres my way of playing it...
Intro/Verse

|----------------------------|
|----------------------------|
|----------------------------|
|-12-12-12-12-12-12-12-12-12-|
|-12-12-12-12-12-12-12-12-12-|
|-12-12-12-12-12-12-12-12-12-|
  PM........................
Ad Lib throughout


Pre-Chorus

|----------------------------|
|----------------------------|
|----------------------------|
|-13-13-13-13-13-13-13-13-13-|
|-13-13-13-13-13-13-13-13-13-|
|-13-13-13-13-13-13-13-13-13-|
  PM........................
Like the Intro/Verse, ad lib


Chorus

|---------------------|-----------------------------------|
|---------------------|-----------------------------------|
|---------------------|------------------12^^^^^^^^^^^^^^-|
|-0-1-3-3-3-3-0---0-4-|-12^(13)-12~~-x-x------------------|
|-0-1-3-3-3-3-0---0-4-|-----------------------------------|
|-0-1-3-3-3-3-0---0-4-|-----------------------------------|

|----------------------------|
|----------------------------|
|----------------------------|
|-12-12-12-12-12-12-12-12-12-|
|-12-12-12-12-12-12-12-12-12-|
|-12-12-12-12-12-12-12-12-12-|
  PM........................
Ad Lib throughout

|----------------------------|
|----------------------------|
|----------------------------|
|-13-13-13-13-13-13-13-13-13-|
|-13-13-13-13-13-13-13-13-13-|
|-13-13-13-13-13-13-13-13-13-|
  PM........................
Like the Intro/Verse, ad lib

|---------------------|-----------------------------------|
|---------------------|-----------------------------------|
|---------------------|------------------12^^^^^^^^^^^^^^-|
|-0-1-3-3-3-3-0---0-4-|-12^(13)-12~~-x-x------------------|
|-0-1-3-3-3-3-0---0-4-|-----------------------------------|
|-0-1-3-3-3-3-0---0-4-|-----------------------------------|

|----------------------------|
|----------------------------|
|----------------------------|
|-13-13-13-13-13-13-13-13-13-|
|-13-13-13-13-13-13-13-13-13-|
|-13-13-13-13-13-13-13-13-13-|
  PM........................
Like the Intro/Verse, ad lib


Outro

|---------------------|-----------------|
|---------------------|-----------------|
|---------------------|-----------------|
|-0-1-3-3-3-3-0---0-4-|-0-1-3-3-3-3-0~~-|
|-0-1-3-3-3-3-0---0-4-|-0-1-3-3-3-3-0~~-|
|-0-1-3-3-3-3-0---0-4-|-0-1-3-3-3-3-0~~-|
  Play x 4            |

ⓘ Guitar tab for 'Night Goat' by Melvins, a sludge metal band formed in 1982 from Seattle, USA

Almost there ...

Sign in to get your own page with links to favourite songs and more. You are just one click away...

Login with Facebook Login with Google