Log in

One click and you are in

Login with Facebook Login with Google

Why sign up and log in

Guitar Tabs Explorer
Melvins tabs for Mombius hibachi

Guitar tabs

Melvins - Mombius Hibachi
:: bennield@hotmail.com ::

> bend
/ slide up
 slide down
Riff 1 (play 4 times):

g ---------------------5-----------|-----------------5-------5-------|
d -----------------x---5-----------|-----------------5-------5-------|
a -0---0---3---0---x---3-----------|-0---0---3---0---3-------3---0---|
A chord diagramD MajorD -0---0---3---0-------------------|-0---0---3---0---------------0---|


Riff 2 (play twice):

d ---------------------------------|---------------------------------|
a -0---0---5---0---5---0---0---5---|-0---5---0---5---3---5---6-------|
A chord diagramD MajorD -0---0---5---0---5---0---0---5---|-0---5---0---5---3---5---6-------|

d ---------------------------------|-------------------------|
a -0---0---6---0---6---0---0---0---|-5---3-------0-------0---|
A chord diagramD MajorD -0---0---6---0---6---0---0---0---|-5---3-------0-------0---|

d ---------------------------------|-------------------------|
a -5---0---5---0---0---5---0---5---|-0---5---3---5---6-------|
A chord diagramD MajorD -5---0---5---0---0---5---0---5---|-0---5---3---5---6-------|

g -8-----------7-----------|
d -8-----------7-----------|
a -6-----------5-----------|
A chord diagramD MajorD -------------------------|

Bridge (play 4 times):

g ---------------------------------|---------------------------------|
d -5-5-5-5-5-5---------------------|---------------------------------|
a -5-5-5-5-5-5---------------------|---------------------------------|
A chord diagramD MajorD ---------------------------------|---------------------------------|
             ^


Verse:

d ---------------------------------|---------------------------------|
A chord diagramA augmentedA -----5-----5-----5-----5---5---5|-4---4-----4-----4-----4---4---4/|
A chord diagramD MajorD -0-0---0-0---0-0---0-0---0---0---|---0---0-0---0-0---0-0---0---0---|

Fill:

d ---------------------------------|---------------------------------|
a -5---5---5---5---5---5---5---5---|-5---5---5---5---5---5---5---5---|
A chord diagramD MajorD -0---0---0---0---0---0---0---0---|-0---0---0---0---0---0---0---0---|


Outro:

d -0-------------------------------|---------------------------------|
a -0-------------------------------|---------------------------------|
A chord diagramD MajorD -0-------------------------------|---------------------------------|

d -7-------------------------------|---------------------------------|
a -5-------------------------------|---------------------------------|
A chord diagramD MajorD -0-------------------------------|---------------------------------|

d -5-------------------------------|-6-------------------------------|
a -3-------------------------------|-4-------------------------------|
A chord diagramD MajorD -0-------------------------------|-0-------------------------------|

d -3-------------------------------|-3-------------------------------|
a -1-------------------------------|-2-------------------------------|
A chord diagramD MajorD -0-------------------------------|-0-------------------------------|

d ---------------------------------|-3-------------------------------|
a ---------------------------------|-2-------------------------------|
A chord diagramD MajorD ---------------------------------|-0-------------------------------|

Fin.

Almost there ...

Sign in to get your own page with links to favourite songs and more. You are just one click away...

Login with Facebook Login with Google