Log in

One click and you are in

Login with Facebook Login with Google

Why sign up and log in

Guitar Tabs Explorer
Melvins tabs for Lone rose holding now

Guitar tabs

Melvins - Lone Rose Holding Now

"-tabbed by Bottari Jonathan-" evilken87@hotmail.com

	  4/4
b = bend
x = mute
h = hammer on
p = pull off

intro

e|----------------|----------------|----------------|----------------|
b|----------------|----------------|----------------|----------------|
g|----------------|----------------|----------------|----------------|
d|------------5---|----------------|------------5---|----------------|
a|7---------7---7-|6---------6---6-|7---------7---7-|6-7-6-----6---6-|
A chord diagramE MajorE|----------------|------------7---|----------------|------------7---|


verso

  /---------------x3--------------\
e|----------------|----------------|----------------|----------------|
b|----------------|----------------|----------------|----------------|
g|----------------|----------------|----------------|----------------|
d|----------------|----------------|----------------|----------------|
a|7---------------|----------------|----------------|----------------|
A chord diagramE MajorE|----------------|----------------|7---------------|----------------|


chorus

e|----------------|----------------|
b|----------------|----------------|
g|----------------|----------------|
d|--------------7p|6---------------|
a|6-6-6-6h7p6-----|----7p6---------|
A chord diagramE MajorE|----------------|----------7p6---|


bridge

e|----------------|----------------|
b|----------------|----------------|
g|----------------|----------------|
d|----------------|----------------|
a|7p6---7p6---7p6-|--7p6---7p6-----|
A chord diagramE MajorE|----------------|----------------|


outro

e|----------------|----------------|----------------|----------------|
b|----------------|----------------|----------------|----------------|
g|----------------|----------------|----------------|----------------|
d|------9-----7---|--6-----7---6---|------8-----6---|--5-------------|
a|7---------------|----------------|6---------------|----------------|
A chord diagramE MajorE|----------------|----------------|----------------|----------------|


e|----------------|----------------|
b|----------------|----------------|
g|----------------|----------------|
d|----------------|----------------|
a|----------------|----------------|
A chord diagramE MajorE|8-8-8-xxx-8-7-8-|9-9-9-----------|


intro	x2
verso	x1

chorus	x2

intro	x2
verso	x1

chorus	x4

bridge	x1

outro	x3

Almost there ...

Sign in to get your own page with links to favourite songs and more. You are just one click away...

Login with Facebook Login with Google