Log in

One click and you are in

Login with Facebook Login with Google

Why sign up and log in

Guitar Tabs Explorer
Melvins bass tabs for Jew boy flower head

Bass tabs

Melvins - Jew Boy Flower Head
bass

ben.nield@gmail.com
^^full bend
^ bend
\ slide
~ hold

swing rhythm


Riff A
G---------------------------------|-----------------
D---------------------------------|-----------------
A---------------------------------|-5-----------7---
E-0-----3-----0-----5-----7---6---|-------7---5-----


"....it's later than you think....."


Riff B
G---------|-------------|---------|-----------------
D---------|-------------|---------|-----------------
A-3(13x)--|-------0-3-0-|-5(12x)--|-----------------
E---------|-3\5---------|-------0-|-3~~---2-----6---


Repeat all of the above once more.
End with intro.

ⓘ Bass guitar tab for 'Jew Boy Flower Head' by Melvins, a sludge metal band formed in 1982 from Seattle, USA

Almost there ...

Sign in to get your own page with links to favourite songs and more. You are just one click away...

Login with Facebook Login with Google