Log in

One click and you are in

Login with Facebook Login with Google

Why sign up and log in

Guitar Tabs Explorer
Melvins tabs for Instant larry

Guitar tabs

Instant Larry
--------------------------------------------------------------------------------

by the Melvins

tabbed by King Z
RJW616@aol.com

Drop-D tuning

^=palm mute
1st riff

g  --7--5--7--8--4-5  --7--5--7--8--8-8-7
d  --7--5--7--8--4-5  --7--5--7--8--8-8-7
a  --5--3--5--6--2-3  --5--3--5--6--6-6-5
A chord diagramD MajorD  00-00-00-00-00---  00-00-00-00--------
   ^^ ^^ ^^ ^^ ^^     ^^ ^^ ^^ ^^


2nd riff

g  ----7-7------5-5------4----4----4-4/5
d  ----7-7------5-5------4----4----4-4/5
a  ----5-5------3-3------2----2----2-2/3
A chord diagramD MajorD  0000----0000-----0000---00---00------
   ^^^^    ^^^^     ^^^^   ^^   ^^


3rd riff (Background to solo)


g  7--7--x-7-x-7-7--7--x-7-x-7-7--7--x-7-x-7-4--x-x-5--x-x
d  7--7--x-7-x-7-7--7--x-7-x-7-7--7--x-7-x-7-4--x-x-5--x-x
a  5--5--x-5-x-5-5--5--x-5-x-5-5--5--x-5-x-5-2--x-x-3--x-x
A chord diagramD MajorD  -------------------------------------------------------

4th riff (also background to solo) play twice,
but don't play what's behind the line the 2nd time

g  ---------- | ----54-----7------54------------54-----8-8-87
d  0--x-x-3-2 | x-x-54-x-x-7--x-x-54-x-x-1--x-x-54-x-x-8-8-87
a  0--x-x-3-2 | x-x-32-x-x-5--x-x-32-x-x-1--x-x-32-x-x-6-6-65
A chord diagramD MajorD  0--x-x-3-2 | x-x-----x-x----x-x-----x-x-1--x-x-----x-x--------


5th riff    Play these as press chords... press them down on the fret board

g  4--4--4--4--5--5--5--5  |  4--4--4--4--7--7--7--7
d  4--4--4--4--5--5--5--5  |  4--4--4--4--7--7--7--7
a  2--2--2--2--3--3--3--3  |  2--2--2--2--5--5--5--5
A chord diagramD MajorD  ----------------------  |  ----------------------


last part of the press chords goes like this:

6th riff

g  4--x-x-4--x-x-5--x-5--7--5-4
d  4--x-x-4--x-x-5--x-5--7--5-4
a  2--x-x-2--x-x-3--x-3--5--3-2
A chord diagramD MajorD  ----------------------------


7th riff

g  -------------------------------
d  -------------------------------
a  -------------------------------
A chord diagramD MajorD  000000000000--0--1-000000000000 ... continue ...
   ^^^^^^^^^^^^       ^^^^^^^^^^^^

Almost there ...

Sign in to get your own page with links to favourite songs and more. You are just one click away...

Login with Facebook Login with Google