Log in

One click and you are in

Login with Facebook Login with Google

Why sign up and log in

Guitar Tabs Explorer
Melvins tabs for Honey bucket

Guitar tabs with lyrics

"Honey Bucket"
                                ---------------
                              the Melvins (Houdini)
                          -------------------------------

 <tabbed by: tim.straub@web.de>

 dropped d (e-string)
 Intro:

   a|--------------------------|
   d|---0--0-0-1-0-0--7-0--0---|
   a|-----------------------------------------------0-0-0--|
   d|---0--0-0-1-0-0--7-0--0-0-0-1-1-0-0-0-0-1-0-0--0-0-0--|


 Riff1:

   a|----0--0-0-1-0--0--0--0-0-0-1-1-|-0-0-0-0-1-0--0--0--0-0-0-3-3---|
   d|----0--0-0-1-0--0--0--0-0-0-1-1-|-0-0-0-0-1-0--0--0--0-0-0-3-3---|


   a|---0-0-0-0-1-0--0--0--0-0-0-1-1-|-0-0-0-0-1-0--0--0--0-|
   d|---0-0-0-0-1-0--0--0--0-0-0-1-1-|-0-0-0-0-1-0--0--0--0-|


   a|-0-0-0-3--3-0-3-0-3--3-3-3-3-4--4-0-4040404040404040-0..-|
   d|-0-0-0-3--3-0-3-0-3--3-3-3-3-4--4-0-4040404040404040-0..-|
                                         ,,,,,,,po,,,,,,,

 Bridge:

 ( Bass(While the guitar lets the d-chord ring):
   d|---0---0--0-0-0-1-1--1-1-1-5---5--5-5-5-6-6--6-6-6--12---12--12-0--0---| )

   g|-------------------------------------------------------------------8-8-8-8-8-8-8-7--7--7--|
   d|-------------------------------------------------------------------8-8-8-8-8-8-8-7--7--7--|
   a|---0-0-0-0-0-0-0-1-1-1-1-1-1-1-1-1-5-5-5-5-5-5-5-6-6-6-6-6-6-6-6-6-6-6-6-6-6-6-6-5--5--5--|
   d|---0-0-0-0-0-0-0-1-1-1-1-1-1-1-1-1-5-5-5-5-5-5-5-6-6-6-6-6-6-6-6-6------------------------|


 Riff1 (varied):

   a|--------------------------------|--------------------------------|
   d|---0--0-0-1-0-0--7-0--0-0-0-1-1-|-0-0-0-0-1-0-0--7-0--0-0-0-3-3--|


   a|---0-0-0-0-1-0--0--0--0-0-0-1-1-|-0-0-0-0-1-0--0--0--0--0-0-0-|
   d|---0-0-0-0-1-0--0--0--0-0-0-1-1-|-0-0-0-0-1-0--0--0--0--0-0-0-|


   a|--0-0-0-0-1-0--0--0--0-0-0-1-1-|-0-0-0-0-1-0--0--0--0-0-0-3-3---|
   d|--0-0-0-0-1-0--0--0--0-0-0-1-1-|-0-0-0-0-1-0--0--0--0-0-0-3-3---|


   a|---0-0-0-0-1-0--0--0--0-0-0-1-1-|-0-0-0-0-1-0--0--0--0-|
   d|---0-0-0-0-1-0--0--0--0-0-0-1-1-|-0-0-0-0-1-0--0--0--0-|


   a|-0-0-0-3--3-0-3-0-3--3-3-3-3-4--4-0-404040404040404040404040-|
   d|-0-0-0-3--3-0-3-0-3--3-3-3-3-4--4-0-404040404040404040404040-|
                                         ,,,,,,,,,,,,po,,,,,,,,,,

 Verse-Intro:

   a|-0--0--0--0--0--0--0--0-|-0--0--0--0--0--0--0--0-|-0--0--0--0--0--0--0--0-|
   d|-0--0--0--0--0--0--0--0-|-0--0--0--0--0--0--0--0-|-0--0--0--0--0--0--0--0-|
      ........................................................................

   a|-0--0--0--0--0--0--0--0-|-0--0-(0)-0--0--0-(0)-0-|-0--0-(0)-0--0--0-(0)-0-|
   d|-0--0--0--0--0--0--0--0-|-0--0-(0)-0--0--0-(0)-0-|-0--0-(0)-0--0--0-(0)-0-|
      ........................................................................

   a|-0--0-(0)-0--0--0-(0)-0-|-0--0-(0)-0-|
   d|-0--0-(0)-0--0--0-(0)-0-|-0--0-(0)-0-|
      ...................................


 Verse:

   a|-7--5--6--5--7--0--0--0--0--1--0--1--0--1--0--1--|
   d|-7--5--6--5--7--0--0--0--0--1--0--1--0--1--0--1--|     repeat directly  x16
                     ..........     .     .

 Bridge:

   g|---------------------------8-8-8-8-8-8-8-8-8-8-8-8-8-8-8-|
   d|---------------------------8-8-8-8-8-8-8-8-8-8-8-8-8-8-8-|
   a|-7--5--6--5--0---0---1---0-6-6-6-6-6-6-6-6-6-6-6-6-6-6-6-|
   d|-7--5--6--5--0---0---1---0-------------------------------|


   a|--0---0--1--0-6p5-3h5-3h5---------|
   d|--0---0--1--0-------------3h5-3h5-|


 (break:)

   g|--------------8-8-8-8-8-8-8-8-8-8-8-8-8-8-8-7---------------|
   d|--------------8-8-8-8-8-8-8-8-8-8-8-8-8-8-8-7---------------|
   a|--0---0--1--0-6-6-6-6-6-6-6-6-6-6-6-6-6-6-6-5--5\--x--------|
   d|--0---0--1--0----------------------------------7\--x--0--0--|
                                                           .  .

 Verse:

   a|-7--5--6--5--7--0--0--0--0--1--0--1--0--1--0--1--|
   d|-7--5--6--5--7--0--0--0--0--1--0--1--0--1--0--1--|     repeat directly  x4
                     ..........     .     .


   a|-7--5--6--5--7--0--0--0--0--1--0--1--0--1--0--1--|
   d|-7--5--6--5--7--0--0--0--0--1--0--1--0--1--0--1--|     repeat directly  x8
      ...........    ...........    .     .


 end:

   g|---------------------------8-8-8-8-8-8-8-8-8-8-8-8-8-8-8-|
   d|---------------------------8-8-8-8-8-8-8-8-8-8-8-8-8-8-8-|
   a|-7--5--6--5--0---0---1---0-6-6-6-6-6-6-6-6-6-6-6-6-6-6-6-|
   d|-7--5--6--5--0---0---1---0-------------------------------|


   a|--0---0--1--0-6p5-3h5-3h5---------|
   d|--0---0--1--0-------------3h5-3h5-|


   g|--------------8-8-8-8-8-8-8-8-8-8-8-8-8-8-8-7-----------|
   d|--------------8-8-8-8-8-8-8-8-8-8-8-8-8-8-8-7-----------|
   a|--0---0--1--0-6-6-6-6-6-6-6-6-6-6-6-6-6-6-6-5--5\-------|
   d|--0---0--1--0----------------------------------7\-------|


 Explanations:

 ,,,po,,, = pull offs                               |-6p5-|  = pull off

 |-0..-|  = let ring                                |-3h5-|  = hammer on

 |-0-0-|  = palm mute                               |--7\-|  = slide down
   ...
                            |-x-| = pm left hand

Almost there ...

Sign in to get your own page with links to favourite songs and more. You are just one click away...

Login with Facebook Login with Google