Log in

One click and you are in

Login with Facebook Login with Google

Why sign up and log in

Guitar Tabs Explorer
Melvins tabs for Going blind  kiss cover

Guitar tabs with lyrics

Melvins - Going Blind (originally by Kiss)


Tabber  zium
Tuning  Normal

Date    26 July 2003

Notes   I'm not sure if the solo is 100% correct. It sounds
         like it, but buzz probably plays is different. I have
         tried to tab it the way buzz plays it (since he has
         removed the high A chord diagramE MajorE string from his guitar). If you
         have any questions, my mail adres is muizium@hotmail.com.

Order   Intro   (2x)
         Verse 1 (2x)
         Chorus
         Verse 1 (2x)
         Chorus
         Solo    (2x)
         Chorus
         Verse 2 (2x)
         Chorus
         Verse 2 (2x)


Intro
e-----------------------------------------------------
B-----------------------------------------------------
G-----------------------------------------------------
D-5--5-5--4-5-7-5-------------------------------------
A-3--3-3--2-3-5-3-5-3-7--5--5-5-5-5--7-9-12-14--2--2--
E-----------------3-1-5--3--3-3-3-3--5-7-10-12--0--0--

Verse 1
e----------------------------------------
B----------------------------------------
G----------------------------------------
D-5--------------------------------------
A-3--3--7---5--5-5-5-5--7-9-12-14--2--2--
E----1--5---3--3-3-3-3--5-7-10-12--0--0--


Chorus
e-------------------------------------------------
B----------7-5-----------------7-5-------5--------
G--------------6-4-6~~-------------6-4-6---6-4----
D----------------------------------------------7~~
A-7--5--2-------------7--5--2---------------------
E-5--3--0-------------5--3--0---------------------
                                                ^ Second time you play the
                                                  chorus, solo starts here

Solo
e---------------------------------
B-15b~-15b-15b-15b-15b-15b-15-12-- (Continues down here)
G---------------------------------
D---------------------------------
A---------------------------------
E---------------------------------


Solo
e-----------------------------------------------------------------
B-19b~19b~19-15--15-15-17b-15-17b-15-17b-15--11-13b-11-13b-11-13~~
G-----------------------------------------------------------------
D-----------------------------------------------------------------
A-----------------------------------------------------------------
E-----------------------------------------------------------------


Verse 2
e-------------------------------------
B-------------------------------------
G-------------------------------------
D-5-----------------------------------
A-3--3--7-5-3-2-5----7-9-12-14--2--2--
E----1--5-3-1-0-3155-7-10-12--0--0--
                    ^ Slide without picking
                      the strings

Almost there ...

Sign in to get your own page with links to favourite songs and more. You are just one click away...

Login with Facebook Login with Google