Log in

One click and you are in

Login with Facebook Login with Google

Why sign up and log in

Guitar Tabs Explorer
Melvins tabs for For you darling

Guitar tabs

"For You Darling" by The Melvins
(from a bedroom recording, 1983)

==ben.nield@gmail.com==

Intro

b---------------------------------|---------------------------------|
g---------------------------------|---------------------------------|
d---------------------------------|---------------------------------|
a-----------------7-------7---5---|-----5-------5---4---5-----------|
e-0-------0---0-------------------|-------------------------5-------|
                                                        PH  - Pinch Harmonic

b---------------------------------|---------------------------------|
g---------------------------------|---------------------------------|
d---------------------------------|---------------------------------|
a-----------------7-------7---5---|-----5-------5-------5---5---5---|
e-0-------0---0-------------------|---------------------------------|
                  PH


Riff 1 (1.5x)

b---------------------------------|---------------------------------|
g---------------------------------|---------------------------------|
d-----------------9-------9---7---|-----7-------7---4---7-----------|
a-2-------2---2---7-------7---5---|-----5-------5---2---5---7-------|
e-0-------0---0-------------------|-------------------------5-------|

Then,
 play this instead of the 2nd bar
b---------------------------------|
g---------------------------------|
d-7---7---7---7---7---7---7-------|
a-5---5---5---5---5---5---5-------|
e-0---0---0---0---0---0---0-------|


Riff 2

b---------------------------------|---------------------------------|
g---------------------------------|---------------------------------|
d---------------------------------|---------------------------------|
a-7---7---7---7---7---8-------4---|-----4---4---4---4---5-----------|
e-5---5---5---5---5---6-------2---|-----2---2---2---2---3-----------|
  .   .   .   .   .                     .   .   .   .

Then Riff 1, then Riff 2, etc 4x
Then Riff 1 4x


Riff 3 (2x)

b---------------------------------|---------------------------------|
g---------------------------------|---------------------------------|
d-2---3---4---5-------5-------5---|-5---4---2---2--------2----------|
a-0---1---2---3-------3-------3---|-3---2---1---0--------0----------|
e---------------------------------|---------------------------------|


Ending

b---------------------------------|---------------------------------|
g---------------------------------|---------------------------------|
d---------------------------------|-5-------------------------------|
a-5-------------------------------|-7-------------------------------|
e-3-------------------------------|---------------------------------|


Been my good friend
With eyes a-dripping
That's right a fake man
Can you see me?
Tight little woman
Bring me siren
With which my reason
For you my darling
What planes will never believe
What planes will never believe
And I'm losing one of my jubilent hands
I'm losing my heart, I'm losing your head
So...

Almost there ...

Sign in to get your own page with links to favourite songs and more. You are just one click away...

Login with Facebook Login with Google