Log in

One click and you are in

Login with Facebook Login with Google

Why sign up and log in

Guitar Tabs Explorer
Melvins tabs for Eye flys

Guitar tabs

Melvins - Eye Flys

(bass)

tabbed by
ben.nield@gmail.com

intro:

g-----------------|
d-----------------|
a-----------------|
e-------------0---|

g-----------------|-----------------|
d-----------------|-----------------|
a-----------------|-----------------|
e-1---0---2---0---|-2---3---2---0---|  play this line a thousand
times


g---------|
d---------|
a---------|
e-1---0---|


verse:

g-----------------------------------------------------
d-----------------------------------------------------
a---------2-----------5---4---------------------------
e-2---2-------3---2-----------2---3---0---1---0---1---

g-----------------------------------------------------|
d-----------------------------------------------------|
a-----------------------------------------------------|
e-2---2---2---2---2---2---2---2---2---2---2---2---2---|

g-----------------------------------------|
d-----------------------------------------|
a---------2-----------5---4---------------|
e-2---2-------3---2-----------2---3---0---|  play this four times

g-------------
d-------------
a-------------
e-1---0---1---

g-----------------------------------------------------
d-----------------------------------------------------
a-----------------------------------------------------
e-2---2---2---2---2---2---2---2---2---2---2---2---2---

g-------------------------|
d-------------------------|
a-------------------------|
e-2---0---1---1---1---1---|  play this three times

g---------------
d---------------
a---------------
e-1---1---------

let ring

fin.

Almost there ...

Sign in to get your own page with links to favourite songs and more. You are just one click away...

Login with Facebook Login with Google