Log in

One click and you are in

Login with Facebook Login with Google

Why sign up and log in

Guitar Tabs Explorer
Melvins tabs for Echohead don t piece me

Guitar tabs

"Echohead"


Tuning:  Drop A chord diagramD MajorD

Order:    Part 1
         Part 2
         Part 3 (2 Times)
         Part 1
         Part 4

Part 1
e|------------------------|
A chord diagramBB|------------------------|
A chord diagramG+G|------------------------|
A chord diagramD MajorD|------------------------|
A chord diagramA augmentedA|-X-X-0-0-0-1-0-1-0--3~~~|
A chord diagramE MajorE|-X-X-0-0-0-1-0-1-0--3~~~|

Part 2
e|--------------------------|
A chord diagramBB|--------------------------|
A chord diagramG+G|--------------------------|
A chord diagramD MajorD|--------------------------|
A chord diagramA augmentedA|-X-X-0-0-0-1-0-1-0--3-0-4-|
A chord diagramE MajorE|-X-X-0-0-0-1-0-1-0--3-0-4-|

Part 3
e|--------------------------------------------|
A chord diagramBB|--------------------------------------------|
A chord diagramG+G|--------------------------------------------|
A chord diagramD MajorD|--------------------------------------------|
A chord diagramA augmentedA|-4-4-4-3-4-5-5--5-4-5-6-6--6-5-6--7-6-7-8~~~|
A chord diagramE MajorE|-4-4-4-3-4-5-5--5-4-5-6-6--6-5-6--7-6-7-8~~~|

Part 4
e|------------------------|
A chord diagramBB|------------------------|
A chord diagramG+G|------------------------|
A chord diagramD MajorD|------------------------|
A chord diagramA augmentedA|-X-X-0-0-0-1-0-1-0--3-X-|
A chord diagramE MajorE|-X-X-0-0-0-1-0-1-0--3-X-|

"Don't Piece Me"

|---------------------------------------------------------------------------------------
|------------------Ending of Echohead---------------------------------------------------
|---------------------------------------------------------------------------------------
|-------8vvvvvvvvvvvvvvvvvvvvvvvvvvvvvvvvvvvvv------------------------------------------
|---------------------------------------------------------------------------------------
|---------------------------------------------------------------------------------------


|--------------------------------------------------------------------------------------
|-------------Not too sure about this part, too fast to tab, just fool around with-----
|--------------------------------------------------------------------------------------
|---------------6-5-0-4-5-0-6-5-0-4-0--------------------------------------------------
|--------------------------------------------------------------------------------------
|-----------0--------------------------0-0-0-------------------------------------------


|--------Intro-------------------------------------------------------------------------
|--------------------------------------------------------------------------------------
|--------------------------------------------------------------------------------------
|------6-5vv--------5-4-3vv-------6-5-3----3-------5-4vv--------6-5-3------5-4-3-------
|----------------------------------------0-3-------------------------------------------
|-5-5----------4-4--------------5-5------0-3--4-4----------5-5----------4-4------------


|----VERSE-----------------------------------------------------------------------------
|--------------------------------------------------------------------------------------
|--------------------------------------------------------------------------------------
|-10-9-7-0-3-0-10-9-7-0-3-3-3-3-3-10-9-7-0-3-0-1-1-1/5---------------------------------
|-10-9-7-0-3-0-10-9-7-0-3-3-3-3-3-10-9-7-0-3-0-1-1-1/5---------------------------------
|-10-9-7-0-3-0-10-9-7-0-3-3-3-3-3-10-9-7-0-3-0-1-1-1/5---------------------------------


|---------------------------------------------------------------------------------------
|---------------------------------------------------------------------------------------
|---------------------------------------------------------------------------------------
|-10-9-7-0-3-0-10-9-7-0-3-3-3-3-3-10-9-7-0-3-0-1-1-1/5----------------------------------
|-10-9-7-0-3-0-10-9-7-0-3-3-3-3-3-10-9-7-0-3-0-1-1-1/5----------------------------------
|-10-9-7-0-3-0-10-9-7-0-3-3-3-3-3-10-9-7-0-3-0-1-1-1/5-5vv-4vv--------------------------


|---------------------------------------------------------------------------------------
|---------------------------------------------------------------------------------------
|---------------------------------------------------------------------------------------
|-----------------------------------------------------------------5vv-4t5---------------
|--------------------------5vv-4t5----------4vv-3vv-------------------------------------
|-5b6r5vv--4b5r4vv----5vvv------------4vvv--------------5-x-5vv-------------4-x-4b5r4vv-


|--"Never..." Part-----------------------------------------------------------------------
|----------------------------------------------------------------------------------------
|----------------------------------------------------------------------------------------
|-0-1-4-3-----------0-0-1-1-4-4-3~~~-----------------------------------------------------
|-0-1-4-3-----------0-0-1-1-4-4-3~~~-----------------------------------------------------
|-0-1-4-3-----------0-0-1-1-4-4-3~~~-------(x2)------------------------------------------


|-SOLO-----------------------------------------------------------------------------------
|-----------------------------------------------------9b---------------------------------
|--------------------------7-7-8-8-11-11-10~~------------/4------------------------------
|--------------------------7-7-8-8-11-11-10~~---------------4-0-4-5-0-4-5-5b6r5vv--------
|-1vv 2vv--------------------------------------------------------------------------------
|---------3b4r4vv------------------------------------------------------------------------


|----------------------------------------------------------------------------------------
|----------------------------------------------------------------------------------------
|--5b-5b-00-4b-4b-00-5b-5b-00-4b-4b~~~---------------------------------------------------
|--------------------------------------------------4-------------------------------------
|--------------------------------------------------4-------------------------------------
|--------------------------------------------------4-------------------------------------


not too sure about solo, but its close,  Email me about comments etc:  MudhoneyAiC21@aol.com


4vv – vibrato

5b – bend

5b6r5 –bend 5 to 6 then back

~~ - hold out

1/5 – 1 slide to 5

Almost there ...

Sign in to get your own page with links to favourite songs and more. You are just one click away...

Login with Facebook Login with Google