Log in

One click and you are in

Login with Facebook Login with Google

Why sign up and log in

Guitar Tabs Explorer
Melvins tabs for Buck owens

Guitar tabs

"Buck Owens" by The Melvins

==ben.nield@gmail.com==
Intro:

b---------------------------|---------------------------|-------|---------------------------|-------|---------------------------
g---------------------------|---------------------------|-------|---------------------------|-------|---------------------------
d-9---8---------9---8-------|-8---7---------8---7-------|-6---7-|-9---8---------9---8-------|-6---7-|-8---7---------8---7-------
a-7---6---------7---6-------|-6---5---------6---5-------|-4---5-|-7---6---------7---6-------|-4---5-|-6---5---------6---5-------
e---------0-0-----------0-0-|---------0-0-----------0-0-|-------|---------0-0-----------0-0-|-------|---------0-0-----------0-0-

b---------------------------|---------------------------|-------|---------------------------|-------|---------------------------
g---------------------------|---------------------------|-------|---------------------------|-------|---------------------------
d-9---8---------9---8-------|-8---7---------8---7-------|-6---7-|-9---8---------9---8-------|-6---7-|-8---7---------8---7-------
a-7---6---------7---6-------|-6---5---------6---5-------|-4---5-|-7---6---------7---6-------|-4---5-|-6---5---------6---5-------
e---------0-0-----------0-0-|---------0-0-----------0-0-|-------|---------0-0-----------0-0-|-------|---------0-0-----------0-0-

b---------------------------|---------------------------|-------|---------------------------|-------|---------------------------|
g---------------------------|---------------------------|-------|---------------------------|-------|---------------------------|
d-9---8---------9---8-------|-8---7---------8---7-------|-6---7-|-9---8---------9---8-------|-6---7-|-8---7---------8---7---8---|
a-7---6---------7---6-------|-6---5---------6---5-------|-4---5-|-7---6---------7---6-------|-4---5-|-6---5---------6---5---6---|
e---------0-0-----------0-0-|---------0-0-----------0-0-|-------|---------0-0-----------0-0-|-------|---------0-0---------------|


Then: (play 3X)

  1       2       3       4         1       2       3       4
b---------------------------------|---------------------------------
g---------------------------------|---------------------------------
d---------------------------------|---------------------------------
a-5---5---5-5---5---5---5---5-5-5-|-5---5-5-5-5---5---5---5---5-5-5-
e---------------------------------|---------------------------------

b---------------------------------|---------------------------------|
g---------------------------------|---------------------------------|
d---------------------------------|---------------------------------|
a-5-5-5-5-5-5-5-5---5---5---5-5-5-|-5---5-5-5-5-5-5---5---5---5-5-5-|
e---------------------------------|---------------------------------|

Then:

  1       2       3       4         1       2       3       4         1       2       3       4
b---------------------------------|---------------------------------|---------------------------------|
g-9-----------9-----------9-------|-9-----------9-----------9-------|-9-----------9-----------9-------|
d-9-----------9-----------7-------|-7-----------7-----------7-------|-7-----------7-----------7-------|
a-7-----------7-----------7-------|-7-----------7-----------7-------|-7-----------7-----------7-------|
e---------------------------------|---------------------------------|---------------------------------|


Riff 2: (X3)

b---------------------------------|---------------------------------
g---------------------------------|---------------------------------
d---------------------------------|---------------------------------
a-2---3-3-3-3-3-3---3-2---2-2-2-2-|-2h3-3-3-3-3-3-3---3-2---2-2-2-2-
e-0---1-1-1-1-1-1---1-0---0-0-0-0-|-0h1-1-1-1-1-1-1---1-0---0-0-0-0-
      x x x x x x         x x x x       x x x x x x         x x x x

b---------------------------------|----------------|
g---------------------------------|---------9------|
d---------------------------------|---------9------|
a-2h3-3-3-3-3-3-3---3-2---2-2-2-2-|-2-------7------|
e-0h1-1-1-1-1-1-1---1-0---0-0-0-0-|-0/7-x-x--------|
      x x x x x x         x x x x


Fill:

  1       2       3       4         1       2
b---------------------------------|-----------------|
g---------------------------------|-----------------|
d-7---4-------3-------------------|-----------------|
a-5---3-------1-------------------|-----------------|
e---------------------------------|-6-3-----6-3-----|

Then:

  1       2       3       4         1       2       3       4         1       2       3       4         1       2       3       4
b---------------------------------|---------------------------------|---------------------------------|---------------------------------
g---------------------------------|---------------------------------|---------------------------------|---------------------------------
d-2-------------------------------|-----------------------------2---|---------------------------------|-----------------------------2---
a-2-------------------------------|-------------3---5---6-------0---|---------------------------------|-------------3---5---6-------0---
e-0-------------------------------|-------------3---5---6-------0---|---------------------------------|-------------3---5---6-------0---

b---------------------------------|---------------------------------|---------------------------------|---------------------------------
g---------------------------------|---------------------------------|---------------------------------|---------------------------------
d---------------------------------|-----------------------------2---|---------------------------------|---------------------------------
a---------------------------------|-------------3---5---6-------0---|---------------------------------|---------5------7-------8--------
e---------------------------------|-------------3---5---6-------0---|---------------------------------|---------3------5-------7--------

b---------------------------------|---------------------------------|---------------------------------|---------------------------------
g---------------------------------|---------------------------------|---------------------------------|---------------------------------
d---------------------------------|---------------------------------|---------------------------------|---------------------------------
a-7-----------7-----------7-------|-7-----------7-----------7-------|-7-----------7-----------7-------|-7-----------7-----------7-------
e-0-----------0-----------0-------|-0-----------0-----------0-------|-0-----------0-----------0-------|-0-----------0-----------0-------

b---------------------------------|---------------------------------|
g-7-------------------------------|-6-------------------------------|
d-7-------------------------------|-6---------------5---------------|
a-5-------------------------------|-4---------------5---------------|
e---------------------------------|-----------------3---------------|

Then back to Riff 2 (X3)
Then Fill


Then:

b---------------------------------|---------------------------------|
g---------------------------------|---------------------------------|
d-2-------------------------------|---------------------------------|
a-2-------------------------------|---------------------------------|
e-0-------------------------------|---------------------------------|

Quiet bit: (3X)

  1       2       3       4         1       2       3       4        1       2       3       4         1       2       3       4
b---------------------------------|---------------------------------|---------------------------------|---------------------------------|
g---------------------------------|---------------------------------|---------------------------------|---------------------------------|
d-----6-------7-------6-----------|-----7---6-------7---6-----------|---------------------------------|---------------------------------|
a-7---------------------------7---|-------------7-----------7-------|-5---7-------8-------5---8---7---|---------------------------------|
e---------------------------------|-----------------------------7---|---------------------------------|---------0-----------------------|


Then:

b---------------------------------|---------------------------------
g-7----------7------------7-------|-----7-----------7-------7-------
d-7----------7------------7-------|-----7-----------7-------7-------
a-5----------5------------5-------|-----5-----------5-------5-------
e---------------------------------|---------------------------------

b---------------------------------|---------------------------------
g-9-----------9-----------9-------|-----9-----------9-------9-------
d-9-----------9-----------7-------|-----7-----------7-------7-------
a-7-----------7-----------7-------|-----7-----------7-------7-------
e---------------------------------|---------------------------------

b---------------------------------|---------------------------------|
g-7-----------7-----------7-------|-6-------------------------------|
d-7-----------7-----------7-------|-6---------------5---------------|
a-5-----------5-----------5-------|-4---------------5---------------|
e---------------------------------|-----------------3---------------|


Outro:

  1     2     3     4       1     2     3     4
b-------------------------|-------------------------
g-------------------------|-------------------------
d-------------------------|-------------2-----------
a-------------------------|-------------2-----------
e-0-0-0-0-0-0-0-0-0-0-0-0-|-0-0-0-0-0-0-0-----------

b-------------------------|-------------------------
g-------------------------|-------------------------
d-------------------------|-------------------------
a-------------------------|-------------------------
e-0-0-0-0-0-0-0-0-0-0-0-0-|-0-0-0-0-0-0-0-0-0-0-0-0-

b-------------------------|-------------------------
g-------------------------|-------------------------
d-------------------------|-------------2-----------
a-------------------------|-------------2-----------
e-0-0-0-0-0-0-0-0-0-0-0-0-|-0-0-0-0-0-0-0-----------

Let last chord ring.

Almost there ...

Sign in to get your own page with links to favourite songs and more. You are just one click away...

Login with Facebook Login with Google