Log in

One click and you are in

Login with Facebook Login with Google

Why sign up and log in

Guitar Tabs Explorer
Melvins tabs for Brain center at whipples

Guitar tabs

Melvins - "The Brain Center At Whipples"

==ben.nield@gmail.com==


b = bend
h = hammer on
p = pull off
r = ring
Riff 1: (play 3X)

b---------------------------------|---------------------------------|
g---------------------------------|---------------------------------|
d---------------------------------|---------------------------------|
a---------7-----------------------|---------------------------------|
e-0---0---------0-0-0-3-0-0-5-0-0-|-6---0-0-1-0-0---0-0-1h0-3h0-3h0-|

Then:

b---------------------------------|---------------------------------|
g---------9-----9-----------------|---------9-----9-----------------|
d---------9-----9-----------------|---------7-----7-----------------|
a---------7-----7-----------------|---------7-----7-----------------|
e-0---0-----------0-0-0---0---0---|-----0-----------0-0-0---0---0---|

Play this twice:

b---------------------------------|---------------------------------|
g---------------------------------|---------------------------------|
d---------------------------------|---------------------------------|
a-7-7-7-7-7-7-7-7-7-7-7-7-7-7-7-7-|-7-7-7-7-7-7-7-7-7-7-7-7-7-7-7-7-|
e---------------------------------|---------------------------------|

Riff 2: (X2)

b---------------------------------|---------------------------------
g-9--9--9-----9-------------------|-7--7--7-----7-------------------
d-9--9--9-----9-------------------|-7--7--7-----7-------------------
a-7--7--7-----7-------------------|-5--5--5-----5-------------------
e---------------------------------|---------------------------------

b---------------------------------|---------------------------------|
g---------------------------------|-----------------------------5---|
d---------------------------------|-----------------------------5---|
a-------------------3-----5---3---|-5-----6-----7-----5---7p5h7-----|
e-3----4------5-------------------|---------------------------------|


Verse: (X8)

b---------------------------------|---------------------------------|
g---------------------------------|---------------------------------|
d---------------------------------|---------------------------------|
a-7---7-7-7-7---7-7-7-7-7-7-7-7-7-|-7---7-7-7-7---7-7-7-7-7-7-7-7-7-|
e---------------------------------|---------------------------------|

Then strum this 3X:

b---------------------------------|
g-9--9--9-------------------------|
d-9--9--9-------------------------|
a-7--7--7-------------------------|
e---------------------------------|

Then back to Verse 2X
Back to Riff 2 (3X)

Then this X3:

b---------------------------------|
g---------------------------------|
d---------5-----------------------|
a-7p5h7p5-5-----------------------|
e---------------------------------|

Then:

b---------------------------------|---------------------------------
g---------------------------------|---------------------------------
d-2-----------5-------------------|---------------------------------
a-2-----------5-------------------|---------------------------------
e-0-----------3-------------------|---------------------------------

b---------------------------------|---------------------------------|
g-9-----------12------------------|---------------------------------|
d-9-----------12------------------|---------------------------------|
a-7-----------10------------------|---------------------------------|
e---------------------------------|---------------------------------|


Solo a:

b---------------------------------|---------------------------------
g-12b-----------------------------|-12------------------------------
d-------------10~~~~~~~~~~~~~~~~--|-----11------11-11-11b12-11b12---
a---------------------------------|---------------------------------
e---------------------------------|---------------------------------

b---------------------------------|
g-9-------------------------------|
d-9-------------------------------|
a-7-------------------------------|
e---------------------------------|

Fill a:

  1   +   2   +   3   +   4   +     1   +   2   +   3   +   4   +
b---------------------------------|---------------------------------
g---------------------------------|---------------------------------
d---------------------------------|---------------------------------
a-------------------------5---7---|---------------------------------
e-6-----5---------5---3-----------|-5---7---5---2---3-----2---------

  1   +   2   +   3   +   4   +     1   +   2   +   3   +   4   +
b---------------------------------|---------------------------------|
g---------------------------------|---------------------------------|
d---------------------------------|---------------------------------|
a---------3---------------5-------|-5---3---5-------3---------------|
e-3---2-----------5---3-----------|---------------------0-0-0-0-0-0-|


Solo b:

b---------------------------------|---------------------------------
g---------------------------------|---------------------------------
d-------------9r------------------|-------------------------8-------
a-7-------------------------------|---------------------------------
e---------------------------------|---------------------------------

b---------------------------------|---------------------------------
g---------------------------------|---------------------------------
d-------------11r-----------------|---------------------------------
a-12------------------------------|---------------------------------
e---------------------------------|---------------------------------

b---------------------------------|---------------------------------
g-12------------------11----------|-12------------------9-----------
d-12------------------11----------|-12------------------9-----------
a-10------------------9-----------|-10------------------7-----------
e---------------------------------|---------------------------------

b---------------------------------|---------------------------------|
g-12------------------11----------|-12------------------------------|
d-12------------------11----------|-12------------------------------|
a-10------------------9-----------|-10------------------------------|
e---------------------------------|---------------------------------|

Fill b:

  1   +   2   +   3   +   4   +
b---------------------------------|
g---------------------------------|
d---------------------------------|
a-------------------------5-------|
e-6-----5---------5---3-----------|


Solo c:

  1   +   2   +   3   +   4   +     1   +   2   +   3   +   4   +
b---------------------------------|---------------------------------
g---------------------------------|---------------------------------
d-----8---7-------7-------7---7b8-|-7---9---9b8-----7-------7---7---
a-7-----------9-------7-----------|-------------9-------7----h9-----
e---------------------------------|---------------------------------

  1   +   2   +   3   +   4   +     1   +   2   +   3   +   4   +
b---------------------------------|---------------------------------
g-9---8---7-------7-------7---8---|-9-------------------------------
d-------------9-------9-----------|---------------------------------
a---------------------------------|---------------------------------
e---------------------------------|---------------------------------

  1   +   2   +   3   +   4   +     1   +   2   +   3   +   4   +
b---------------------------------|---------------------------------
g-11--10--9-------9-------9---10--|-9---8---7-------7-------7-------
d-------------11------11----------|-------------9-------9-------9---
a---------------------------------|---------------------------------
e---------------------------------|---------------------------------

  1   +   2   +   3   +   4   +     1   +   2   +   3   +   4   +
b---------------------------------|----------------------------------
g-7---9---7-------7---------------|---------9br----------------------
d-------------9-------9---8---7---|---------9br----------------------
a---------------------------------|-9---8---7br----------------------
e---------------------------------|----------------------------------

b---------------------------------|
g---------------------------------|
d---------------------------------|
a---------------------------------|
e---------------------------------|


Riff 3: (2X)

b---------------------------------|---------------------------------
g-9-----------9-----------9-------|-5-----5-----5-------------------
d-9-----------9-----------9-------|-5h7---5h7---5h7-----------------
a-7-----------7-----------7-------|-5-----5-----5-------------------
e---------------------------------|---------------------------------

b---------------------------------|---------------------------------|
g---------------------------------|---------------------------------|
d---------------------------------|-----------------9---------------|
a-5h7-7-6-----5---7---------------|-5h7-7-6-----5-----------9-------|
e---------------------------------|---------------------------------|


Outro (12X) - Gradually build speed:

b---------------------------------|---------------------------------|
g---------9-----------------------|---------------------------------|
d---------9-----------------------|---------------------------------|
a---------7-----------------------|---------------------------------|
e-0---0---------0-0-0-3-0-0-5-0-0-|-6---0-0-1-0-0---0-0-1h0-3h0-3h0-|

End on this:

  1   +   2   +   3   +   4   +
b---------------------------------|
g---------9-----------------------|
d---------9-----------------------|
a---------7-----------------------|
e-0---0---------------------------|

Almost there ...

Sign in to get your own page with links to favourite songs and more. You are just one click away...

Login with Facebook Login with Google