Log in

One click and you are in

Login with Facebook Login with Google

Why sign up and log in

Guitar Tabs Explorer
Melvins bass tabs for Boris

Bass tabs

Melvins-Boris (Bass tab)
Album-Bullhead

Drop D Tuning
Intro (Play once only):
G|-----------------------
D|-----------------------
A|-----------------------
D|8-7-7-7-8-7-7-7-9b-8---

Then
G|-----------------------------
D|-----------------------------
A|-----------------------------
D|8-7-7-8-7-7-7-8-7-7-7-9b-8---

Repeat until
"It's like sin"

G|-------
D|-------
A|-------
D|8-7-7-8


Bridge:
G|-----------------------------
D|-----------------------------
A|-----------------------------
D|7-9-8-7-9-8-9-8-9-8-9-8-8-9-8

G|--------------------------------
D|--------------------------------
A|--------------------------------
D|7-7-8-7-7-8-7-7-8-7-7-8-7-7-9---

G|-----------------------
D|-----------------------
A|-----------------------
D|7-9-8-7-9-8-9-8-9-8-9-8

G|---------------------
D|---------------------
A|---------------------
D|7-7-8-7-7-9(hold)-7-8

Back to main riff.

Almost there ...

Sign in to get your own page with links to favourite songs and more. You are just one click away...

Login with Facebook Login with Google