Log in

One click and you are in

Login with Facebook Login with Google

Why sign up and log in

Guitar Tabs Explorer
Melvins tabs for Black stooges

Guitar tabs

"Black Stooges"
 by
  the Melvins

: bennield@hotmail.com :

.   mute
^   bend

Occasionally use side of pick to scrape string slightly while playing.
	Intro

    Guitar 1 plays (4X):

   b|------------------------------------------------|
   g|------------------------------------------------|
   d|-9--9--9--9--9--9--9--9--9--9--9--9--9--9--9--9-|
   a|-7--7--7--7--7--7--7--7--7--7--7--7--7--7--7--7-|
   e|-0--0--0--0--0--0--0--0--0--0--0--0--0--0--0--0-|
      .  .  .  .  .  .  .  .  .  .  .  .  .  .  .  .

   b|------------------------------------------------|
   g|------------------------------------------------|
   d|-9--9--9--9--9--9--9--9--9--9--9--9--9--9--9--9-|
   a|-7--7--7--7--7--7--7--7--7--7--7--7--7--7--7--7-|
   e|-0--0--0--0--0--0--0--0--0--0--0--0--0--0--0--0-|
      .  .  .  .  .  .  .  .  .  .  .  .  .  .  .  .

    Guitar 2 plays (4X):

      1  +  2  +  3  +  4  +  1  +  2  +  3  +  4  +
   b|------------------------------------------------|
   g|------------------------------------------------|
   d|-7--9--9--7--9-----7--9--9--7--9^----9--9--9--9-|
   a|------------------------------------------------|
   e|------------------------------------------------|

   b|------------------------------------------------|
   g|-------------------7----------------------------|
   d|-10-------7-----7-----------8-----7--10-8--7--9-|
   a|------------------------------------------------|
   e|------------------------------------------------|

    Then (both Guitars):

   b|------------------------------------------------|
   g|------------------------------------------------|
   d|------------------------------------------------|
   a|------------------------------------------------|
   e|-0-0-0-0-0-0-0-0-0-0-0-0-0-0-0-0-0-0-0-0-0-0-0--|
      .  .  .  .  .  .  .  .  .  .  .  .  .  .  .  .

   b|------------------------------------------------|
   g|------------------------------------------------|
   d|------------------------------------------------|
   a|------------------------------------------------|
   e|-0-0-0-0-0-0-0-0-0-0-0-0-0-0-0-0-0-0-0-0-0-0-0--|
      .  .  .  .  .  .  .  .  .  .  .  .  .  .  .  .

    Then this: (3X)

      1  +  2  +  3  +  4  +  1  +  2  +  3  +  4  +  1  +  2  +  3  +  4  +
   b|-------------------------------------------------------------------------|
   g|-------------------------------------------------------------------------|
   d|-9--9-----9--9-----4--5--6--------7-----4-----2--3--4-----7-----4-----7--|
   a|-7--7-----7--7-----2--3--4--------5-----2-----0--1--2-----5-----2-----5--|
   e|-------------------------------------------------------------------------|

	Verse (5X)


   b|-------------------------------------------------------------------------------|
   g|-------------------------------------------------------------------------------|
   d|-9-----------------------------------9-----------------------------------------|
   a|-7--7--7--9--7--7--9--7--8--7--9--7-----7--7--9--7--7--9--7--8--7--9--7--9--7--|
   e|-------------------------------------------------------------------------------|
         .  .  .  .  .  .  .  .  .  .  .     .  .  .  .  .  .  .  .  .  .  .  .  .

   b|-------------------------------------------------------------|
   g|-------------------------------------------------------------|
   d|-9-----------------------------------9-----------------------|
   a|----7--7--9--7--7--9--7--8--7--9--7-----7--7--9--7--7--9--7--|
   e|-------------------------------------------------------------|
         .  .  .  .  .  .  .  .  .  .  .     .  .  .  .  .  .  .

     1  +  2  +  3  +  4  +  1  +
   b|-------------------------------|
   g|-------------------------------|
   d|-7--7-----6--7-----7-----9-----|
   a|-5--5-----4--5-----5-----7-----|
   e|-------------------------------|


    Then:

      1  +  2  +  3  +  4  +  1  +  2  +  3  +  4  +  1  +  2  +  3  +  4  +  1  +
   b|-------------------------------------------------------------------------------|
   g|-------------------------------------------------------------------------------|
   d|-------------------------------------------------------------------------------|
   a|-7--------8--------7--------8--------7--------7--------8--------8--------------|
   e|----6--7-----6--7-----6--7-----6--7-----6--7-----6--7-----6--7-----6--7--------|
      .  .  .  .  .  .  .  .  .  .  .  .  .  .  .  .  .  .  .  .  .  .  .  .

   b|-------------------------------------------------|
   g|-------------------------------------------------|
   d|-------------------------------------------------|
   a|-7--------8--------7-----------2-------------2/9-|
   e|----6--7-----6--7-----6--7--00-0-------------0/7-|
      .  .  .  .  .  .  .  .  .

      1  +  2  +  3  +  4  +  1  +  2  +  3  +  4  +  1  +  2  +  3  +  4  +
   b|-------------------------------------------------------------------------|
   g|-------------------------------------------------------------------------|
   d|-9-----------------------4--------3--------7---------4-------3-----9-----|
   a|-7-----------------------2--------1--------5---------2-------1-----7-----|
   e|-------------------------------------------------------------------------|

	Back to Verse 4X

    Then:

      1  +  2  +  3  +  4  +  1  +  2  +  3  +  4  +  1  +  2  +  3  +  4  +  1  +
   b|-------------------------------------------------------------------------------|
   g|-------------------------------------------------------------------------------|
   d|-9--------4--------5-----------------------5-----7-----4-----4-----------------|
   a|-7--------2--------3-----------------------3--0--5--0--2-----2--0--5--4--2-----|
   e|-------------------------------------------------------------------3--2--0-----|


	Then 3 and half mins of drums and noise.

Almost there ...

Sign in to get your own page with links to favourite songs and more. You are just one click away...

Login with Facebook Login with Google