Log in

One click and you are in

Login with Facebook Login with Google

Why sign up and log in

Guitar Tabs Explorer
Melvins tabs for Amazon

Guitar tabs with lyrics

The Melvins
"amazon" and "AMAZON"
from The Maggot LP


Tuning: I play it in Droped Db, but thats just me.
You can play it in Dropped A chord diagramD MajorD if you want.

"amazon"
Verse:
|-------------------------------------|
|-------------------------------------|
|-------------------------------------|
|-------------------------------------|
|---0000000--3-4-3-0--00000-6-66-66---|
|---0000000--3-4-3-0--00000-6-66-66---|
   [..p.m..]         [.p.m.]


Chorus:
|-----------------------------------------------------------|
|-----------------------------------------------------------|
|--555-55-555-777-77-777-888-88-888-333/1010-101010---------|
|--555-55-555-777-77-777-888-88-888-333/1010-101010---------|
|--333-33-333-555-55-555-666-66-666-111/8-8--8-8-8----------|
|-----------------------------------------------------------|


Post-Chorus:
|---------------------|
|---------------------|
|---------------------|
|---------------------|
|---0000000--6-5-3-0--|
|---0000000--6-5-3-0--|
   [..p.m..]

play that a few times then, Then finish it with this.
|-------|
|-------|
|--5----|
|--5----|
|--3----|
|-------|

Play the whole thing over again, and then go read my other AMAZON tab
to link

em together.

"AMAZON"

Drop-D

Intro/Verse:
  |----------------------------------|
  |----------------------------------|
  |----------------------------------|
  |--0-0--00-00---0-0--00-00---------|
  |--0-0--00-00---0-0--00-00---------|
  |--0-0--00-00---0-0--00-00---------|
  P.M all


Main Riff:   Bend the first notes slightly
  |-------------------------------------------|
  |-------------------------------------------|
  |-------------------------------------------|
  |--6-5-00-00-----00-00-----00-00-----00-00--|
  |------00-00-4-3-00-00-6-5-00-00-6-5-00-00--|
  |------00-00-----00-00-----00-00-----00-00--|
  P.M.   .. ..     .. ..     .. ..     .. ..

  |-------------------------------------------|
  |-------------------------------------------|
  |-------------------------------------------|
  |--6-5-00-00-----00-00-----00-00-----00-00--|
  |------00-00-4-3-00-00-6-5-00-00-6-5-00-00--|
  |------00-00-----00-00-----00-00-----00-00--|
  P.M.   .. ..     .. ..     .. ..     .. ..

Post Main Riff/Outro:
 |------------------------------------------------------|
 |------------------------------------------------------|
 |------------------------------------------------------|
 |------00-00-----00-00-----00-00-----00-00-----00-00---|
 |--6-5-00-00-6-5-00-00-6-5-00-00-6-5-00-00-6-5-00-00---|
 |------00-00-----00-00-----00-00-----00-00-----00-00---|
 P.M.   .. ..     .. ..     .. ..     .. ..     .. ..

Other versions of Amazon

Amazon 1 2Tabs

Almost there ...

Sign in to get your own page with links to favourite songs and more. You are just one click away...

Login with Facebook Login with Google