Warp Back Spin by Melt Banana

Warp Back Spin tab by Melt Banana

Guitar tabs

"Warp, Back Spin" by Melt-Banana
>From the album 'Teeny Shiny'
Tabbed by gavin (venus_in_furs@postmaster.co.uk)
This is all my own work.

Comes straight in off the last chord of 'First Contact to Planet Q'

e-----|
B-----|
G--6--|
D--4--|
A-----|
E-----|


e------------------------------------------------------|
B------------------------------------------------------|  x8
G----------6-6----------6-6----------6-6----------6-6--| vocals
D--6-6-4-6-4-4--6-6-4-6-4-4--6-6-4-6-4-4--6-6-4-6-4-4--| come in
A--4-4-4-4-4-4--4-4-4-4-4-4--4-4-4-4-4-4--4-4-4-4-4-4--| after 4
E------------------------------------------------------|


Strike these chords carefully, just once each

e-----------------------------------------|
B-----------------------------------------|
G--6-----4----6-----4----6-----4----6-----|
D--4--5--2----4--5--2----4--5--2----4--5--|
A-----3----------3----------3----------3--|
E-----------------------------------------|


e------------------------------------------------------|
B------------------------------------------------------|  x8
G----------6-6----------6-6----------6-6----------6-6--| vocals
D--6-6-4-6-4-4--6-6-4-6-4-4--6-6-4-6-4-4--6-6-4-6-4-4--| come in
A--4-4-4-4-4-4--4-4-4-4-4-4--4-4-4-4-4-4--4-4-4-4-4-4--| after 4
E------------------------------------------------------|


e-----------------------------------------|
B-----------------------------------------|
G--6-----4----6-----4----6-----4----6-----|
D--4--5--2----4--5--2----4--5--2----4--5--|
A-----3----------3----------3----------3--|
E-----------------------------------------|


e------------------------------------------------------|
B------------------------------------------------------|
G----------6-6----------6-6----------6-6----------6-6--| x4
D--6-6-4-6-4-4--6-6-4-6-4-4--6-6-4-6-4-4--6-6-4-6-4-4--| fades out
A--4-4-4-4-4-4--4-4-4-4-4-4--4-4-4-4-4-4--4-4-4-4-4-4--|
E------------------------------------------------------|

Comments etc gratefully received.

Find guitar tabs and chords

A B C D E F G H I J K L M N O P Q R S T U V W X Y Z #