Log in

One click and you are in

Login with Facebook Login with Google

Why sign up and log in

Guitar Tabs Explorer
Melt Banana tabs for Moon flavour

Guitar tabs with lyrics

"Moon Flavour" by Melt-Banana
Album : Teeny Shiny
Tabbed by gavin (venus_in_furs@postmaster.co.uk)
This is all my own work.

/ - Slide up
\ - Slide down
h - Hammer on
e----------------------------------|
B----------------------------------|
G----------------------------------|
D----------------------------------|  x8  (Drums enter after
A--10-h-12-\--7-7-10-10-10-10-10-8-|         two bars)
E-------------5-5-8--8--8--8--8--6-|


at "moonstruck bite..."

e-------------------12--|
B--14-14-13---14-14-11--|
G--12-12-11---12-12-12--|   x4
D-----------------------|
A-----------------------|
E-----------------------|

e--10----10-----|
B--8-----8------|
G---------------|   x4
D---------------|
A--10----10-----|
E---------------|

e-------------------12--|
B--14-14-13---14-14-11--|
G--12-12-11---12-12-12--|   x4
D-----------------------|
A-----------------------|
E-----------------------|

e--10----10-----|
B--8-----8------|
G---------------|   x4
D---------------|
A--10----10-----|
E---------------|


Chorus

e--------------------------------------------------------------------|
B--------------------------------------------------------------------|
G--------------------------------------------------------------------|
D--------------------------------------------------------------------|
A--10-h-12-\--7-7-10-10-10-10-10-8---10-h-12-\--7-7-10-10-10-10-10-8-|
E-------------5-5-8--8--8--8--8--6--------------5-5-8--8--8--8--8--6-|

e-------------------------------------------------|
B-------------------------------------------------|
G-------------------------------------------------|
D-------------------------------------------------|
A--10-h-12-\--7-7-10-10-10-10-10-8---10-h-12-\-7--|
E-------------5-5-8--8--8--8--8--6-------------5--|


over "Whats the flavour "

B--x-7--8-x-7--8-x-7--8-x-7--8--|


e-------------------12--|
B--14-14-13---14-14-11--|
G--12-12-11---12-12-12--|   x4
D-----------------------|
A-----------------------|
E-----------------------|

e--10----10-----|
B--8-----8------|
G---------------|   x4
D---------------|
A--10----10-----|
E---------------|


Chorus

e--------------------------------------------------------------------|
B--------------------------------------------------------------------|
G--------------------------------------------------------------------|
D--------------------------------------------------------------------|
A--10-h-12-\--7-7-10-10-10-10-10-8---10-h-12-\--7-7-10-10-10-10-10-8-|
E-------------5-5-8--8--8--8--8--6--------------5-5-8--8--8--8--8--6-|

e-------------------------------------------------|
B-------------------------------------------------|
G-------------------------------------------------|
D-------------------------------------------------|
A--10-h-12-\--7-7-10-10-10-10-10-8---10-h-12-\-7--|
E-------------5-5-8--8--8--8--8--6-------------5--|


over "Whats the flavour "

B--x-7--8-x-7--8-x-7--8-x-7--8--|


FUNKY SOUND EFFECTS SOLO


e-------------------12--|
B--14-14-13---14-14-11--|
G--12-12-11---12-12-12--|   x4
D-----------------------|
A-----------------------|
E-----------------------|

e--10----10-----|
B--8-----8------|
G---------------|   x4
D---------------|
A--10----10-----|
E---------------|

e-------------------12--|
B--14-14-13---14-14-11--|
G--12-12-11---12-12-12--|   x4
D-----------------------|
A-----------------------|
E-----------------------|

e--10----10-----|
B--8-----8------|
G---------------|   x4
D---------------|
A--10----10-----|
E---------------|


End chorus - repeat this a lot (I couldn't be bothered counting)

e--------------------------------------------------------------------|
B--------------------------------------------------------------------|
G--------------------------------------------------------------------|
D--------------------------------------------------------------------|
A--10-h-12-\--7-7-10-10-10-10-10-8---10-h-12-\--7-7-10-10-10-10-10-8-|
E-------------5-5-8--8--8--8--8--6--------------5-5-8--8--8--8--8--6-|


Ending

e-----------------|
B-----------------|
G-----------------|
D-----------------|
A--10-h-12-\--0---|
E-----------------|


This is just a best guess at the moment, especially the verse parts, so feel free to improve. In fact the more I play it the less right it sounds, but see what you think.

Any other Melt-Banana tabs gratefully received, especially material from "13000 Miles at light velocity"

Almost there ...

Sign in to get your own page with links to favourite songs and more. You are just one click away...

Login with Facebook Login with Google