Log in

One click and you are in

Login with Facebook Login with Google

Why sign up and log in

Guitar Tabs Explorer
Melt Banana tabs for First contact to planet q

First Contact To Planet Q tab by Melt Banana

Melt Banana tabs for First contact to planet q

Guitar tabs

"First Contact to Planet Q" by Melt-Banana
Album : Teeny Shiny
Tabbed by gavin (venus_in_furs@postmaster.co.uk)
This is all my own work.

Very fast, very overdriven.  Bit tough to make out whats going on over all the chaos, but this is my best guess..

e----------------------------------------------|
B----------------------------------------------|
G--------------6--------------6--7-7-7-7-7-----|  x4
D--6-6-6-6-6-6-4--6-6-6-6-6-6-4--4-4-4-4-4-6-6-|
A--4-4-4-4-4-4-4--4-4-4-4-4-4-4--4-4-4-4-4-4-4-|
E----------------------------------------------|
e--------------------------------------------------------------|
B--------------------------------------------------------------|
G-------------------6-------------------6-------------------6--|
D--6-6-6-6-6-6-6-6--4--6-6-6-6-6-6-6-6--4--6-6-6-6-6-6-6-6--4--|
A--4-4-4-4-4-4-4-4-----4-4-4-4-4-4-4-4-----4-4-4-4-4-4-4-4-----|
E--------------------------------------------------------------|

e-------------------|
B-------------------|
G-------------------|   Mute after playing this
D--6-6-6-6-6-6-6-6--|
A--4-4-4-4-4-4-4-4--|
E-------------------|


e----------------------------------------------|
B----------------------------------------------|
G--------------6--------------6--7-7-7-7-7-----|  x4
D--6-6-6-6-6-6-4--6-6-6-6-6-6-4--4-4-4-4-4-6-6-|
A--4-4-4-4-4-4-4--4-4-4-4-4-4-4--4-4-4-4-4-4-4-|
E----------------------------------------------|

e--------------------------------------------------------------|
B--------------------------------------------------------------|
G-------------------6-------------------6-------------------6--|
D--6-6-6-6-6-6-6-6--4--6-6-6-6-6-6-6-6--4--6-6-6-6-6-6-6-6--4--|
A--4-4-4-4-4-4-4-4-----4-4-4-4-4-4-4-4-----4-4-4-4-4-4-4-4-----|
E--------------------------------------------------------------|

e--------------------------------------------------------------|
B--------------------------------------------------------------|
G-------------------6-------------------6-------------------6--|
D--6-6-6-6-6-6-6-6--4--6-6-6-6-6-6-6-6--4--6-6-6-6-6-6-6-6--4--|
A--4-4-4-4-4-4-4-4-----4-4-4-4-4-4-4-4-----4-4-4-4-4-4-4-4-----|
E--------------------------------------------------------------|

e----------------------|
B----------------------|
G-------------------6--|
D--6-6-6-6-6-6-6-6--4--|
A--4-4-4-4-4-4-4-4-----|
E----------------------|


e-------------------|
B-------------------|
G-------------------|   Mute after playing this
D--6-6-6-6-6-6-6-6--|
A--4-4-4-4-4-4-4-4--|
E-------------------|


Then it goes straight into "Warp, Back Spin".

Any comments, suggestions gratefully received.

Almost there ...

Sign in to get your own page with links to favourite songs and more. You are just one click away...

Login with Facebook Login with Google