Search tabs and chords

Browse bands and artists

A B C D E F G H I J K L M N O P Q R S T U V W X Y Z #

Log in

[ Register here | Forgot password ]

Guitar Tabs Explorer
Print

Tinylittle tab by Mellowdrone

Guitar tabs

EP:      Boredom Never Sounded So Sweet EP (1999)
Tabbed:  Daniel Dimitri Droukas
¯¯¯¯¯¯¯¯¯¯¯¯¯¯¯¯¯¯¯¯¯¯¯¯¯¯¯¯¯¯¯¯¯¯¯¯¯¯¯¯¯¯¯¯¯¯¯¯¯¯¯¯¯¯¯¯¯¯¯¯¯¯¯¯¯¯¯¯¯¯¯¯¯¯¯¯¯¯¯¯
¯
Tuning: Dropped D (DADGbe)
Although I think jon's guitar was slightly out of tune for this
recording. (?)
________________________________________________________________________________
_
    part 1
¯¯¯¯¯¯¯¯¯¯¯¯¯¯¯¯¯¯¯¯¯¯¯¯¯¯¯¯¯¯¯¯¯¯¯¯¯¯¯¯¯¯¯¯¯¯¯¯¯¯¯¯¯¯¯¯¯¯¯¯¯¯¯¯¯¯¯¯¯¯¯¯¯¯¯¯¯¯¯¯
¯

Intro- (00:00) etc...  (00:20) etc...        (00:27)
e||-------------------||-------------------||--0---0---0---0---5---5---5---5--||

b||-------------------||-------------------||--0---0---0---0---5---5---5---5--||

B||--7---7---7---7----||--4---4---4---4----||--7---7---7---7---7---7---7---7--||

B||--0---0---0---0----||--0---0---0---0----||--7---7---7---7---7---7---7---7--||

B||--5---5---5---5----||--2---2---2---2----||--5---5---5---5---5---5---5---5--||

B||----0---0---0---0--||----0---0---0---0--||----5---5---5---5---5---5---5----||

                         He's got some...      "with me...and you."
   (00:34)
e||--------------------------------------------||
b||--------------------------------------------||
B||----7---7-\-6---6-/-9---9-\-7---7-----------||
B||----0---0---0---0---0---0---0---0-----------||
B||----0---0---0---0---0---0---0---0-----------||
B||--0---0---0---0---0---0---0---0---0---------||

________________________________________________________________________________
_
    part 2
¯¯¯¯¯¯¯¯¯¯¯¯¯¯¯¯¯¯¯¯¯¯¯¯¯¯¯¯¯¯¯¯¯¯¯¯¯¯¯¯¯¯¯¯¯¯¯¯¯¯¯¯¯¯¯¯¯¯¯¯¯¯¯¯¯¯¯¯¯¯¯¯¯¯¯¯¯¯¯¯
¯
   (02:32) -
e||------------------------------------------------------------------------||
b||------------------------------------------------------------------------||
B||----7---7-\-6---6-/-9---9-\-7---7---4---4-\-3---3-/-6---6-\-4---4-------||
B||----0---0---0---0---0---0---0---0---0---0---0---0---0---0---0---0-------||
B||----0---0---0---0---0---0---0---0---0---0---0---0---0---0---0---0-------||
B||--0---0---0---0---0---0---0---0---0---0---0---0---0---0---0---0---------||

  (02:46)
e||-------0--------0-----0--0--0---5--5--------------||
b||-------0--------0-----0--5--5---5--5--------------||
B||-------7--------7-----7--7--7---7--7--------------||
B||-------7--------7-----7--5--5---7--7--------------||
B||-----5-5--------5--------5--5---5--5--------------||
B||-0h5---5--5--5--5--5-----5--5---5--5--------------||



________________________________________________________________________________

Comments