Guitar Tabs Explorer
Mellowdrone guitar tabs for Motivation

Motivation tab


Be the first to rate

Motivation tab by Mellowdrone

Guitar tabs

Print

EP:      This is the old version, not the one released on Go Get `Em
Tabbed:  Daniel Dimitri Droukas
¯¯¯¯¯¯¯¯¯¯¯¯¯¯¯¯¯¯¯¯¯¯¯¯¯¯¯¯¯¯¯¯¯¯¯¯¯¯¯¯¯¯¯¯¯¯¯¯¯¯¯¯¯¯¯¯¯¯¯¯¯¯¯¯¯¯¯¯¯¯¯¯¯¯¯¯¯¯¯¯
¯
Tuning:  Dropped D chord diagramDD tuned full step down (CGCFAD)
This is tabbed mostly from a live recording of the song.
Intro- (00:00)
d||-------------10---8-7-------||
a||---8-8-8-8-7----------------||
F|| chord diagramF||F||----------------------------||
C|| chord diagramC||C||----------------------------||
B||----------------------------||
C|| chord diagramC||C||----------------------------||
Intro- (00:00)
d||---------------------------------------------------------------------------||

a||---------------------------------------------------------------------------||

F|| chord diagramF||F||---------------------------------------------------------------------------||

C|| chord diagramC||C||-4--4--4-4-4-10-10-10-10-10-9-9-9--9--9--9-9-9--9-9------------------------||

B||-0--0--0-0-0-7--7--7--7--7--5-5-5--5--5--5-5-5--5-5------------------------||

C|| chord diagramC||C||-0--0--0-0-0-7--7--7--7--7--5-5-5--5--5--5-5-5--5-5------------------------||
This part is also accompanied by Jon strumming muted chords.
when done live, this part is looped.  But when jon plays over it he plays
this
followed by:
d||---------------------------------------------------------------------------||

a||---------------------------------------------------------------------------||

F|| chord diagramF||F||---------------------------------------------------------------------------||

C|| chord diagramC||C||-4--4--4-4-4-10-10-10-10-10-5-5-5--5--5--5-5-5--5-5------------------------||

B||-0--0--0-0-0-7--7--7--7--7--5-5-5--5--5--5-5-5--5-5------------------------||

C|| chord diagramC||C||-0--0--0-0-0-7--7--7--7--7--5-5-5--5--5--5-5-5--5-5------------------------||
This little diddy is found all throughout the song...BUT...
...on the mp3 version i think he plays it an octave higher.
What's written is what he plays on the live version
d||--3-2------------3-2--------2----------------------------------------------||

a||------3--1-----------3--1------3-------------------------------------------||

F|| chord diagramF||F||-----------2---(0)--------2------------------------------------------------||

C|| chord diagramC||C||---------------------------------------------------------------------------||

B||---------------------------------------------------------------------------||

C|| chord diagramC||C||---------------------------------------------------------------------------||
Slow Down - (02:17)  Play twice then... ---->            ...play this.
d||-----------------------------------------------||--------------------------||

a||-----------------------------------------------||--------------------------||

F|| chord diagramF||F||-----------------------------------------------||---11-11---11-11--11-11---||

C|| chord diagramC||C||----12------12-----4-------10------12-----12---||---x--x----x--x---x--x----||

B||---9-------8------0------10-------9------8-----||---9--9----9--9---9--9----||

C|| chord diagramC||C||-9-----9p8-----8p0---0h10-----10p9----9p8------||-0-0--0--0-0--0-0-0--0----||


________________________________________________________________________________

Comment this song and these guitar tabs

Do you have corrections, comments on the guitar tabs, thoughts about the song or a message to the author? Write them below.