Search tabs and chords

Browse bands and artists

A B C D E F G H I J K L M N O P Q R S T U V W X Y Z #

Log in

[ Register here | Forgot password ]

Guitar Tabs Explorer
Print

Guitar tabs :

Anglophile Bass tab by Mellowdrone

EP:      Go Get `Em Tiger (both official and unoffical releases)
Tabbed:  Daniel Dimitri Droukas
¯¯¯¯¯¯¯¯¯¯¯¯¯¯¯¯¯¯¯¯¯¯¯¯¯¯¯¯¯¯¯¯¯¯¯¯¯¯¯¯¯¯¯¯¯¯¯¯¯¯¯¯¯¯¯¯¯¯¯¯¯¯¯¯¯¯¯¯¯¯¯¯¯¯¯¯¯¯¯¯
¯
Tuning: Dropped-D full step down (CGCFad)
Intro- (00:00)
d||---------------------------------------------------------------------------||

a||---------------------------------------------------------------------------||

F||---------------------------------------------------------------------------||

C||---------------------------------------------------------------------------||

B||------5-------5---------2-------2-------9-------9--3--5---3---2---0--------||

C||--5-------5------0--2-------2-------9-------9------------------------------||
Repeat Above until (00:58)
d||---------------------------------------------------------------------------||

a||---------------------------------------------------------------------------||

F||---------------------------------------------------------------------------||

C||---------------------------------------------------------------------------||

B||------5-------5---------2-------2-------5-------5--------2-----------------||

C||--5-------5------0--2-------2-------5-------5-------0-2------2-------------||
Continued (01:23)
d||---------------------------------------------------------------------------||

a||---------------------------------------------------------------------------||

F||---------------------------------------------------------------------------||

C||---------------------------------------------------------------------------||

B||------9--------9--3--5---3---2---0-----------------------------------------||

C||--9-------9----------------------------------------------------------------||
 Rubbish, it's horrible, no good.

________________________________________________________________________________

Comments

Mellowdrone guitar tabs for Anglophile bass