Guitar Tabs Explorer
Mellowdrone guitar tabs for And repeat

And Repeat tab


Be the first to rate

And Repeat tab by Mellowdrone

Guitar tabs with lyrics

Print

EP:      A chord diagramAA Demonstration of Intellectual Property
Tabbed:  Daniel Dimitri Droukas
¯¯¯¯¯¯¯¯¯¯¯¯¯¯¯¯¯¯¯¯¯¯¯¯¯¯¯¯¯¯¯¯¯¯¯¯¯¯¯¯¯¯¯¯¯¯¯¯¯¯¯¯¯¯¯¯¯¯¯¯¯¯¯¯¯¯¯¯¯¯¯¯¯¯¯¯¯¯¯¯
¯
Tuning: Standard tuning then full step down (DGCFad)
Intro- (00:00)
This is played pretty much throughout the entire song on the album
version
d||---------------------------------------------------------------------------||

a||---------------------------------------------------------------------------||

F|| chord diagramF||F||---------------------------------------------------------------------------||

C|| chord diagramC||C||--7--------7--5------5--6~~~-7p6--6----------------------------------------||

B||-----7--4-------7--3-------------------------------------------------------||

B||---------------------------------------------------------------------------||

Background high notes - (00:06)
d||-17----17----15----15----16----16-------------------------||
a||----14----14----13----13----12----12----------------------||
F|| chord diagramF||F||----------------------------------------------------------||
C|| chord diagramC||C||----------------------------------------------------------||
B||----------------------------------------------------------||
B||----------------------------------------------------------||

Supporting Riff Version 1 (clean acoustic) - (00:06)
d||--5---5--5---0---0--0--0--0---0--0--0------------------||  This
version is played
a||--5---5--5---1---1--1--1--0---0--0--0------------------||  on  A chord diagramAA
Demonstration
F|| chord diagramF||F||--6---6--6---0---0--0--0--1---1--1--1------------------||  Of
Intellectual Property
C|| chord diagramC||C||--7---7--7---2---2--2--2--2---2--2--2------------------||
B||--7---7--7---3---3--3--3--2---2--2--2------------------||
B||--5---5--5---3---3--3--3--0---0--0--0------------------||

Supporting Riff Version 2 (clean acoustic) - (00:06)
d||--0---0--0---0---0--0--0--0---0--0--0------------------||  Thisversionis used
a||--2---2--2---1---1--1--1--0---0--0--0------------------|| livedincoordination
F|| chord diagramF||F||--2---2--2---0---0--0--0--1---1--1--1------------------||  withVersion 1above
C|| chord diagramC||C||--2---2--2---2---2--2--2--2---2--2--2------------------||
B||--0---0--0---3---3--3--3--2---2--2--2------------------||
B||--0---0--0---3---3--3--3--0---0--0--0------------------||

Chorus (Distorted Electric) - (01:01)
Same as supporting riff

Live version looped sample:
Same as supporting riff version one but plays notes individually
The order isn't precisely correct, but it gives you the idea.
d||------5--------0-------0-------0-----------------------||
a||------------------------0-------0----------------------||
F|| chord diagramF||F||-----6-6------0-0-----1--1----1--1---------------------||
C|| chord diagramC||C||----7---7----2---2---2----2--2-------------------------||
B||---7-----7--3-----3-2-------2--------------------------||
C|| chord diagramC||C||--5--------3-------0-------0---------------------------||
Live Version higher note progression from above: (?)
d||------5---------8-------------12-----------------------||
a||--------------------------------12---------------------||
F|| chord diagramF||F||-----6-6-------9-9----------13----13-------------------||
C|| chord diagramC||C||----7---7----10---10------14--------14-----------------||
B||---7-----7-10-------10--14-----------------------------||
B||--5-------8-----------12-------------------------------||


________________________________________________________________________________

Comment this song and these guitar tabs

Do you have corrections, comments on the guitar tabs, thoughts about the song or a message to the author? Write them below.