GuitarTabsExplorer icon
GuitarTabsExplorer icon

Log in

Songbook

  • Log in to add and see bookmarks

Last visited songs

  • No songs visited yet...
Rock In The Usa by John Mellencamp

Rock In The Usa bass tab by John Mellencamp

Bass tabs

JOHN MELLENCAMP - "R.O.C.K. in the U.S.A." - Bass Tab

Common Time(4/4)
Standard Tuning(EADG)


INTRO:

                            (x8)
|-----|-----------|---------|-----------|-------------------|
|-----|-----------|---------|-----------|*-----------------*|
|-----|-----------|-r-r-r-r-|-r-r-r-r-7-|*-7-7-7-7-7-7-7-7-*|
|-r-r-|-0-4-7-5-r-|---------|-----------|-------------------|
 3 4  1 2 & 3 4  1 2 3 4  1 2 3 4 &  1 & 2 & 3 & 4 &
             (x4)
|--------------|--------------|
|*-------------|-------------*|
|*-----------5-|-5-r-5-------*|
|--0-4-7-5-r---|-------5-5-r--|
  1 2 & 3 4 &  1 2 & 3 & 4


VERSE 1:

             (x3)
|--------------|--------------|-----------|---------------|
|*-------------|-------------*|-----------|---------------|
|*-----------5-|-5-r-5-------*|---------5-|-------5-------|
|--0-4-7-5-r---|-------5-5-r--|-0-r-5-r---|-----5---0-4-7-|
  1 2 & 3 4 &  1 2 & 3 & 4  1 2 3 4 &  1 2 & 3 & 4 &


CHORUS:

             (x3)
|--------------|--------------|-----------------|---------|
|*-------------|-------------*|-----------------|---------|
|*-----------5-|-5-r-5-------*|-----------------|---------|
|--0-4-7-5-r---|-------5-5-r--|-7-7-7-7-7-7-7-7-|-7-r-r-r-|
  1 2 & 3 4 &  1 2 & 3 & 4  1 & 2 & 3 & 4 &  1 2 3 4


        (x4)
|-------------------|
|*-----------------*|
|*-7-7-7-7-7-7-7-7-*|
|-------------------|
  1 & 2 & 3 & 4 &
VERSE 2:

             (x7)
|--------------|--------------|-----------------|---------|
|*-------------|-------------*|-----------------|---------|
|*-----------5-|-5-r-5-------*|-----------------|---------|
|--0-4-7-5-r---|-------5-5-r--|-7-7-7-7-7-7-7-7-|-7-r-r-r-|
  1 2 & 3 4 &  1 2 & 3 & 4  1 & 2 & 3 & 4 &  1 2 3 4


|-----------|---------|------------|---------|---------|
|-----------|---------|------------|---------|---------|
|---------5-|---------|------------|---------|---------|
|-0-r-5-r---|---------|-0-r-5-5/10-|---------|---------|
 1 2 3 4 &  1 2 3 4  1 2 3 4 &  1 2 3 4  1 2 3 4


SOLO:

             (x8)      (x18)
|--------------|--------------|----------------|
|*-------------|-------------*|*--------------*|
|*-----------5-|-5-r-5-------*|*--------------*|
|--0-4-7-5-r---|-------5-5-r--|--0-r-0-5-5/10--|
  1 2 & 3 4 &  1 2 & 3 & 4   1 2 & 3 & 4


|-----------------|---------|-----------|-------------|
|-----------------|---------|-----------|-------------|
|-----------------|---------|-7-r-------|-5-5-5-5-----|
|-7-7-7-7-7-7-7-7-|-7-r-r-r-|-----5-r-5-|---------5-r-|
 1 & 2 & 3 & 4 &  1 2 3 4  1 2 3 4 &  1 & 2 & 3 4


END:

             (x8)
|--------------|--------------|
|*-------------|-------------*|
|*-----------5-|-5-r-5-------*| (fade-out)
|--0-4-7-5-r---|-------5-5-r--|
  1 2 & 3 4 &  1 2 & 3 & 4


By: Johari Taylor
E-mail: [email protected]

[ Privacy | About us ]

Welcome to the guitar community

Why join and log in?
- Get songbook with favourite songs
- Get custom made front page
- Submit chords and tabs
- Submit guitar-cover videos
- Get a lot of thumbs up for your work

Songbook

Last visited songs

Site
Home
Search
Community
Submit chords

Video

No video for this page. Check out how you can submit guitar-cover videos here

Search tabs and chords

Browse by artist

A B C D E F G H I J K L M N O P Q R S T U V W X Y Z #


Menu

Search

Video

Bookmark

Login