Log in

One click and you are in

Login with Facebook Login with Google

Why sign up and log in

Guitar Tabs Explorer
John Mellencamp bass tabs for Lonely ol night

Bass tabs

JOHN MELLENCAMP - "Lonely Ol' Night" - Bass Tab

Common Time(4/4)
Standard Tuning(EADG)
INTRO:
                        (x2)
|---------|-----------|--------------|--------------|
|---------|-----------|*-------------|-------------*|
|-.-.-.-7-|-------7/2-|*---7---------|-------------*|
|-0-0-0---|-----------|--0---0-0-r-0-|-0---0-0-4h2--|
 1 2 3 4  1 2 3 4 &  1 2 3 & 4 &  1 2 & 3 4 &


VERSE 1 & 2:

             (x4)
|--------------|--------------|---------|-----------|-------------|
|*-------------|-------------*|-----7-7-|-----7-7-7-|-----7-7-7-7-|
|*---7---------|-------------*|-0-0-----|-0-0-------|-0-0---------|
|--0---0-0-r-0-|-0---0-0-4h2--|---------|-----------|-------------|
  1 2 3 & 4 &  1 2 & 3 4 &  1 2 3 4  1 2 3 & 4  1 2 3 & 4 &


|-----------|-------------|-------------|-------------|-------------|
|-----7-7-7-|-------------|-------------|-------------|-------------|
|-0-0-------|---7---------|-------------|---7---------|-------------|
|-----------|-0---0-0-r-0-|-0---0-0-4h2-|-0---0-0-r-0-|-0---0-0---0-|
 1 2 3 & 4  1 2 3 & 4 &  1 2 & 3 4 &  1 2 3 & 4 &  1 2 & 3 4 &


CHORUS:

|-------------|---------------|---------------|-----------------|
|-------4-4-7-|---------------|-------4-4-4-7-|-----------------|
|-5-r-5-------|---------------|-5---5---------|-----------------|
|-------------|-5---5-5-5-5-5-|---------------|-5-5-5-5-5-5-5-5-|
 1 2 & 3 4 &  1 2 & 3 & 4 &  1 2 & 3 & 4 &  1 & 2 & 3 & 4 &

|-------------|-----------------|
|-------4-4-7-|-----------------|
|-5---5-------|-----------------|
|-------------|-5-5-5-5-5-5-4h2-|
 1 2 & 3 4 &  1 & 2 & 3 & 4 &


PRE 2ND VERSE:

|-------------|-------------|-------------|---------------|
|-------------|-------------|-------------|---------------|
|---7---------|-------------|-------------|---------------|
|-0---0-0-r-0-|-0---0-0-4h2-|-0---0-0-r-0-|-0-----0-0-0-0-|
 1 2 3 & 4 &  1 2 & 3 4 &  1 2 & 3 4 &  1 2 3 & a 4 &


|-----------|
|-----------|
|-----------|
|-r-0-0-4h2-|
 1 & a 2 &


PRE-INSTRUMENTAL:

|-------------|-------------|-------------|-------------|
|-------------|-------------|-------------|-------------|
|---7---------|-------------|-------------|-------------|
|-0---0-0-r-0-|-0---0-0-4h2-|-0---0-0-r-0-|-0---0-0-4h2-|
 1 2 3 & 4 &  1 2 & 3 4 &  1 2 & 3 4 &  1 2 & 3 4 &


INSTRUMENTAL:

      (x4)      (x3)             (x4)
|---------------|---------------|-------------|---------------|
|*-----7-7-7-7-*|*-------------*|---------4-6-|*-----7-7-7-7-*|
|*-0-0---------*|*-----7-7-7/2-*|-----7-7-----|*-0-0---------*|
|---------------|--0-0----------|-0-0---------|---------------|
  1 2 3 & 4 &   1 2 3 & 4 &  1 2 3 & 4 &  1 2 3 & 4 &


|-----------|-----------|---------|---------|---------|---------|
|-----------|-----------|---------|---------|---------|---------|
|-----7-7-7-|-----------|---------|---------|---------|---------|
|-0-0-------|-0-0-0-4h2-|-0-0-0---|---------|---------|---------|
 1 2 3 & 4  1 2 3 4 &  1 2 3 4  1 2 3 4  1 2 3 4  1 2 3 4


3RD VERSE: Rest


PRE LAST CHORUS:

|---------|---------|
|---------|---------|
|---------|---------|
|-0-0-0-0-|-0-------|
 1 2 3 4  1 2 3 4


PRE-END:

|-------------|-----------------|
|-------------|-----------------|
|---7---------|-7-7-7-7-7-7-7-7-|
|-0---0-0-r-0-|-----------------|
 1 2 3 & 4 &  1 & 2 & 3 & 4 &


END:

|-------------|---------------|---------------|-----------------|
|-------4-4-7-|---------------|-------4-4-4-7-|-----------------|
|-5-r-5-------|---------------|-5---5---------|-----------------|
|-------------|-5---5-5-5-5-5-|---------------|-5-5-5-5-5-5-5-5-|
 1 2 & 3 4 &  1 2 & 3 & 4 &  1 2 & 3 & 4 &  1 & 2 & 3 & 4 &


|-------------|-----------------|-------------|-----------|
|-------4-4-7-|-----------------|-------------|-----------|
|-5---5-------|-----------------|---7---------|-----------|
|-------------|-5-5-5-5-5-5-4h2-|-0---0-0-r-0-|-0-------0-|
 1 2 & 3 4 &  1 & 2 & 3 & 4 &  1 2 3 & 4 &  1 2 3 4 &


|---------|-----------|---------|-----------|---------|-------------|
|---------|-----------|---------|-----------|---------|-------------|
|---------|-----------|---------|-----------|---------|-------------|
|-0-------|---------0-|-0-------|---------0-|-0-------|-r-0-4h2-0---|
 1 2 3 4  1 2 3 4 &  1 2 3 4  1 2 3 4 &  1 2 3 4  1 & 2 & 3 4


By: Johari Taylor
E-mail: viking@powerup.com.au

Almost there ...

Sign in to get your own page with links to favourite songs and more. You are just one click away...

Login with Facebook Login with Google