Jack And Dianne by John Mellencamp

Jack And Dianne bass tab by John Mellencamp

Bass tabs

JOHN MELLENCAMP - "Jack and Dianne"
- Bass Tab


Common Time(4/4)

Drop D Tuning(DADG)


INTRO:

    (x4)                   (x2)
G|-----------|----------|---------|---------|----------|
D|*---------*|*---------|---------|---------|---------*|
A|*-r-r-r-r-*|*-r-r-r-r-|-r-r-r-r-|---------|---------*|
D|-----------|----------|---------|-0-------|----------|
  1 2 3 4   1 2 3 4  1 2 3 4  1 2 3 4  1 2 3 4


VERSE 1: Rest

1ST CHORUS: Rest

INTERLUDE:

                   (x2)
|----------|---------|---------|----------|
|*---------|---------|---------|---------*|
|*-r-r-r-r-|-r-r-r-r-|---------|---------*|
|----------|---------|-0-------|----------|
  1 2 3 4  1 2 3 4  1 2 3 4  1 2 3 4


VERSE 2:

    (x7)
|-----------|-------------11-13-|
|*---------*|-------12-14-------|
|*-r-r-r-r-*|-r-r-r-------------|
|-----------|-------------------|
  1 2 3 4  1 2 3 4 e & a


2ND CHORUS:

                          (x2)
|-14---13----|-11---9---------|------------|------------|
|------------|------------4-6-|*-----------|-----------*|
|------------|----------7-----|*-0---7-----|-5---7-----*|
|------------|----------------|------------|------------|
 1 2 & 3 4  1 2 & 3 4 e &  1 2 & 3 4  1 2 & 3 4


|-----------|---------|
|-----------|---------|
|-0---7-----|-5-3-0---|
|-----------|---------|
 1 2 & 3 4  1 2 3 4


MIDDLE-EIGHT: Rest

3RD VERSE: Rest

LAST CHORUS: Rest

END:

                (fade-out)
|----------|---------|---------|----------|
|*---------|---------|---------|---------*|
|*-r-r-r-r-|-r-r-r-r-|---------|---------*|
|----------|---------|-0-------|----------|
  1 2 3 4  1 2 3 4  1 2 3 4  1 2 3 4


By: Johari Taylor
E-mail: viking@powerup.com.au

Find guitar tabs and chords

A B C D E F G H I J K L M N O P Q R S T U V W X Y Z #