Log in

One click and you are in

Login with Facebook Login with Google

Why sign up and log in

Guitar Tabs Explorer
John Mellencamp bass tabs for Authority song

Bass tabs

authority_song.btab
john_cougar_mellencamp
TablEdited by Jan Bjorklund for Chad

Tuning : E A D G 	Time Signature: 4/4

tempo 152
 |    |    |    |    |    |    |    |
|--------------------------------|--------------------------------|
|------------------------- drum intro --------------------------|
|--------------------------------|--------------------------------|
|--------------------------------|--------------------------------|

 | tempo 152   |    |    |    |    |    |
|--------------------------------|--------------------------------|
|--------------------4---4---0---|--------0-----------------------|
|--------------------------------|--------------------------------|
|--------------------------------|--------------------------------|

 |    |    |    |    |    |    |    |
|--------------------------------|--------------------------------|
|--------------------4---4---4---|0-------0-----------------------|
|--------------------------------|--------------------------------|
|--------------------------------|--------------------------------|

 |    |    |    |    |    |    |    |
|--------------------------------|--------------------------------|
|--------------------4---4---0---|--------0-----------------------|
|--------------------------------|--------------------------------|
|--------------------------------|--------------------------------|

 |    |    |    |    |    |    |    |
|--------------------------------|--------------------------------|
|--------------------4---4---0---|--------0---0-------0---0---0---|
|--------------------------------|--------------------------------|
|--------------------------------|--------------------------------|

 |    |    |    |    They like to get|you... |
|--------------------------------|--------------------------------|
|------------0---0---0---0---0---|0-----------0---4---0-----------|
|--------------------------------|--------------------------------|
|--------------------------------|------------------------0---2---|

 |    |    |    |    |    |    |    |
|--------------------------------|--------------------------------|
|--------------------------------|0-------3---0---4---0-----------|
|--------2---------------2-------|--------------------------------|
|3-----------3-------3-------3---|------------------------0---2---|

 |    |    |    They   like to get you ...   |
|--------------------------------|--------------------------------|
|--------------------------------|0-----------0---4---0-----------|
|--------2---0---------------0---|--------------------------------|
|3-------------------------------|------------------------0---2---|

 |    |    |    |    |    |    |    |
|--------------------------------|--------------------------------|
|--------------------------------|0-----------0---4---0-----------|
|--------2---0-----------2---0---|--------------------------------|
|3-------------------------------|------------------------0---2---|

 |    |    Well they    think they're so|cute ...
|--------------------------------|--------------------------------|
|--------------------------------|0-----------0---4---0-----------|
|--------2---0-----------0---0---|--------------------------------|
|3-------------------------------|------------------------0---2---|

 |    |    |    |    |    |    |    |
|--------------------------------|--------------------------------|
|--------------------------------|0-------3---0---4---0-----------|
|--------2---0-----------2---0---|--------------------------------|
|3-------------------------------|------------------------0---2---|

 |    |    |    Well   I think it's a...    |
|--------------------------------|--------------------------------|
|--------------------------------|0-------3---0---4---0-----------|
|--------2---0---------------0---|--------------------------------|
|3-------------------------------|------------------------0---2---|

 |    |    |    |    |    |    |    |
|--------------------------------|--------------------------------|
|--------------------------------|0-----------0---4---0-----------|
|--------2---0---0-----------0---|--------------------------------|
|3-------------------------------|------------------------0---2---|



=====
Jan Bjorklund, Finland

Almost there ...

Sign in to get your own page with links to favourite songs and more. You are just one click away...

Login with Facebook Login with Google