Search tabs and chords

Search for song, artist or band

Log in

One click and you are in

Login with Facebook Login with Google

Why sign up and log in

Guitar Tabs Explorer
Melanie Faye guitar tabs for Untitled

Guitar tabs

This song was posted on her instagram. She doesn't use a pick and instead fingerpicks the notes.
The parts with a slide up followed by a slide down (eg. the first measure of Verse 1) are done
really fast.

Intro:
(0:00 - 0:18)
E|-------------3-----------5h7---------7-----------|-5h7------5--------------5h7------5--------------|
B|-3-----5-----------------------------------------|----------------------------------------8-----4--|
G|-4-----------------------5-----------------------|-5-----------------------5-----------------------|
D|-5-----------------------5-----------------------|-5-----------------------4-----------------------|
A|-------------------------------------------------|-------------------------------------------------|
E|-------------------------------------------------|-------------------------------------------------|

E|-5h7------5--------------7-----------7-----------|-7-----------------------5h7---------7-----------|
B|-------------------------------------------------|-------10----8-----------6-----------------------|
G|-5-----------------------7-----------------------|-7-----------------7-----------------------------|
D|-4-----------------------9-----------------------|-9-----------------------5-----------------------|
A|-------------------------------------------------|-------------------------------------------------|
E|-------------------------------------------------|-------------------------------------------------|

E|-8h10--------8-----------5h7---------5-----10----|-5h7---------5-----------5h7---------5-----10----|
B|-8-----------------------------------------------|-------------------------------------------------|
G|-------------------------5-----------------------|-5-----------------------5-----------------------|
D|-7-----------------------5-----------------------|-5-----------------------4-----------------------|
A|-------------------------------------------------|-------------------------------------------------|
E|-------------------------------------------------|-------------------------------------------------|

E|-5h7---------5--------------3--------------------|-------------------------------2-----------------|
B|-------------------------------------------------|-------3-----------------------3-----------------|
G|-5--------------------------4--------------------|-------4-----------------------4-----------------|
D|-4--------------------------5--------------------|-------5-----------------------5-----------------|
A|-------------------------------------------------|-------------------------------------------------|
E|-------------------------------------------------|-3-----------------3--------------------3--------|

Verse 1:
(0:18 - 0:48)
E|----------------3-----------5h7/8\7-------10-----|-------------------------------------------------|
B|----3-----5--------------------------------------|-8h10/11\10--------------------8h10/11\10-----12-|
G|----4-----------------------5--------------------|-8-----------------7h9---------------------------|
D|----5-----------------------5--------------------|-10----------------------------------------------|
A|-------------------------------------------------|-------------------------------------------------|
E|-------------------------------------------------|-------------------------------------------------|

E|-2-----------------------2-----------------------|-2-----------------------3/5/7-------------------|
B|-x-----5-----3-----------------5--------3--------|-x-----5-----3-----------------------------------|
G|-x-----------------4--------------------4--------|-x-----------------4-----------------------------|
D|-------------------------------------------------|-------------------------------------------------|
A|-------------------------------------------------|-------------------------------------------------|
E|-------------------------------------------------|-------------------------------------------------|

E|-5h7---------5h7/8\7----------------------10-----|-------------------------------------------------|
B|-------------------------------------------------|-8h10/11\10--------------------8h10/11\10-----12-|
G|-5-----------5-----------------------------------|-8-----------------7h9---------------------------|
D|-5-----------5-----------------------------------|-10----------------------------------------------|
A|-------------------------------------------------|-------------------------------------------------|
E|-------------------------------------------------|-------------------------------------------------|

E|-2-----3-----2--------------------------5h7------|----------------8h10p8\7-------------------------|
B|-x-----------------3--------------------6--------|-------------------------------10----8-----------|
G|-x-----------------------4-----------------------|-------------------------------------------------|
D|-------------------------------------5-----------|-------------------------------------------------|
A|-------------------------------------------------|-------------------------------------------------|
E|-------------------------------------------------|-------------------------------------------------|

E|-5h7/8\7----------------------------------10-----|-------------------------------------------------|
B|-------------------------------------------------|-8h10/11\10--------------------8h10/11\10-----12-|
G|-5-----------------------------------------------|-8-----------------7h9---------------------------|
D|-5-----------------------------------------------|-10----------------------------------------------|
A|-------------------------------------------------|-------------------------------------------------|
E|-------------------------------------------------|-------------------------------------------------|

E|-2-----3-----2-----------------------------2h3---|----------------8h10p8\7-------------------------|
B|-x-----------------3-----------------------3-----|-------------------------------10----8-----------|
G|-x-----------------------4-----------------------|-------------------------------------------------|
D|-------------------------------------2-----------|-------------------------------------------------|
A|-------------------------------------------------|-------------------------------------------------|
E|-------------------------------------------------|-------------------------------------------------|

E|-5h7---------5h7/8\7----------------------10-----|-------------------------------------------------|
B|-------------------------------------------------|-8h10/11\10--------------------8h10/11\10-----12-|
G|-5-----------5-----------------------------------|-8-----------------7h9---------------------------|
D|-5-----------5-----------------------------------|-10----------------------------------------------|
A|-------------------------------------------------|-------------------------------------------------|
E|-------------------------------------------------|-------------------------------------------------|

Outro:
(0:48 - 0:58)
E|-------------------------------------------------|-------------------------------------------------|
B|-8h10-----------8--------------10----------------|-------------------------------------------------|
G|-------------------------------------------------|-7h9--7------------------------------------------|
D|-------------------------------------------------|-------------7h9--7------5h7------5--------------|
A|-------------------------------------------------|-------------------------------------------------|
E|-------------------------------------------------|-------------------------------------------------|

E|-------------------------------------------------|-------------------------------------------------|
B|-------------------------------8-----------------|-------------------------------------------------|
G|-------------------------7h9---------9p7---------|-7h9p7-------------------------------------------|
D|----------------5h7/9----------------------9-----|---------9p7\5--------5h7p5-------7--------------|
A|----------5h7------------------------------------|----------------7p5------------------------------|
E|-3h5/7-------------------------------------------|-------------------------------------------------|


***********************************

| h Hammer-on
| p Pull-off
| / Slide up
| \ Slide down

Almost there ...

Sign in to get your own page with links to favourite songs and more. You are just one click away...

Login with Facebook Login with Google