Search tabs and chords

Search for song, artist or band

Log in

One click and you are in

Login with Facebook Login with Google

Why sign up and log in

Guitar Tabs Explorer
Melanie Faye guitar tabs for My all

Intro

Tuning: Standard (E chord diagramEE A chord diagramAA D chord diagramDD G chord diagramGG B chord diagramBB E chord diagramEE)

Difficulty: Intermediate

Tab from the start to before the loop pedal begins. Slightly different to what
she does on eternally 12 i.e different key.

Finger pick

  (Riff 1)
e|-------------------------------|-------------------------------------------|
B|-----------3h5------------2h4--|-------------3--------------------3--------|
G|--------4--------------2-------|---------0h2---0-------------0h2----0------|
D|-----5--------------4----------|-----2h4---------4-------2h4---------------|
A|--3--------------2-------------|-------------------------------------------|
E|-------------------------------|--0-------------------0--------------------|
                       (Riff 2)
e|-------------------|-------------------------------|-----------------------|
B|-------------3-----|----------3h5------------2h4---|---------------3-------|
G|---------0h2---0---|--------4-------------2--------|----------0h2----0-----|
D|-----2h4-----------|-----5-------------4-----------|------2h4--------------|
A|-------------------|--3-------------2--------------|-----------------------|
E|--0----------------|-------------------------------|--0--------------------|
                                          (Riff 3)
e|---------------------------------------|---------5h7-----------------------|
B|-------------3--------------------3----|-------------------------2h4-------|
G|---------0h2---0-------------0h2----0--|------5---------------2------------|
D|-----2h4---------4-------2h4-----------|----5--------------4---------------|
A|---------------------------------------|----------------2------------------|
E|--0-------------------0----------------|-5---------------------------------|
                                  (Groovy double stop bit)
e|--5----|-----------------------------2--3--0h2--0-----0h2--0---------------|
B|--5h7--|--------------3----------------------------4-----------------------|
G|--5----|---------0h2----0---------0h2---4--0h2--0-----0h2--0---------------|
D|--7----|-----2h4-----------------------------------4-----------------------|
A|--5----|-------------------------------------------------------------------|
E|-------|--0----------------------------------------------------------------|
  (Riff 4)
e|-------------------------------|-------------------------------------------|
B|-----------3h5------------2h4--|-------------3------0----------------------|
G|--------4--------------2-------|---------0h2---2----1----------------------|
D|-----5--------------4----------|-----2h4------------4----------------------|
A|--3--------------2-------------|--------------------2----------------------|
E|-------------------------------|--0-----------------0----------------------|


************************************

| h   Hammer-on

************************************

Almost there ...

Sign in to get your own page with links to favourite songs and more. You are just one click away...

Login with Facebook Login with Google