Search tabs and chords

Search for song, artist or band

Log in

One click and you are in

Login with Facebook Login with Google

Why sign up and log in

Guitar Tabs Explorer
Melanie Faye guitar tabs for Eternally 12

Guitar tabs

Tuning: Standard (E chord diagramEE A chord diagramAA D chord diagramDD G chord diagramGG B chord diagramBB E chord diagramEE)


;)

e|---------------------------------------------------------------------------------|
B|---------6h8---------5h7--------6--------6---------------------------------------|
G|-------7-----------5-------------------------------------------------------------|
D|-----8-----------7------------5--------5-----------------------------------------|
A|---6-----------5------------5--------5-------------------------------------------|
E|--------------------------3--------3---------------------------------------------|

e|----------8h10---------------------------------------------------------------------|
B|--------8---------------5h7--------6--------6--------------------------------------|
G|------8---------------5------------------------------------------------------------|
D|--------------------7------------5--------5----------------------------------------|
A|------------------5------------5--------5------------------------------------------|
E|----8------------------------3--------3--------------------------------------------|


e|----------8h10------------3h5 3h5h3----------------------|
B|--------8-----------5h7-------------------6--------6-----|
G|------8-------------5-5-------------------------------3--|
D|------------------7---------------------5--------5-------|
A|----------------5---------------------5--------5---------|
E|----8-------------------------------3--------3-----------|

e|---------8h10-------------3h5----------6--------5h3-3h5--|
B|-------8-------------5h7-------------6-------------------|
G|-----8-------------5-------------------------------------|
D|-----------------7-----------------5---------5-----------|
A|---------------5-----------------------------------------|
E|---8----------------------------3----------3-------------|


************************************

| h   Hammer-on

************************************

Almost there ...

Sign in to get your own page with links to favourite songs and more. You are just one click away...

Login with Facebook Login with Google