Log in

One click and you are in

Login with Facebook Login with Google

Why sign up and log in

Guitar Tabs Explorer
Melanie Faye guitar tabs for Acid rnb 5

Intro with lyrics

Tuning: Standard (E A D G B E)

Key: A chord diagramDmDm

Difficulty: Intermediate

BPM = 160

(Make sure to let all the single notes ring out for that beautiful sound)

 Intro :
        Dm(add9)           A chord diagramC6C6             A chord diagramC6C6                     A chord diagramBbMaj9Bbmaj9     A chord diagramBbdim7Bbdim7       A chord diagramGdim7Gdim7
e|--------------------------12---10------12---10--------------------------------------------------------|
B|------------------------10-----------10------------------------13---(13)---14---(14)---11---(11)------|
G|-------------10-------10-----------10--------------------------14---(14)---12---(12)---9----(9)-------|
D|---------14---------10-----------10----------------------12----12---(12)---14---(14)---11---(11)------|
A|-----12----------------------------------------------13--------13---(13)---13---(13)---10---(10)------|
E|-10---------------------------------------------------------------------------------------------------|

( Right after the chord, let the chord vibrate really fast if you have a whammy bar it is easier )

        Dm(add9)           A chord diagramC6C6    A chord diagramD7susD7sus    C6sus(9)                          A chord diagramBbMaj9Bbmaj9   A chord diagramC majorC       A chord diagramC# minorC#m
e|------------------------12-------15-------10--12/13\12--10--------------------------------------------|
B|----------------------10-------13-------10------------------13p10---------13-(13)---------------------|
G|-------------10-----10-------12-------10----------------------------------14-(14)--9--(9)--9--(9)-----|
D|---------14-------10-------12-------10--------------------------------12--12-(12)--10-(10)-11-(11)----|
A|-----12-----------------------------------------------------------13------13-(13)---------------------|
E|-10--------------------------------------------------------------------------------8--(8)--9--(9)-----|

          Dm(add9)                            Bb6sus2                  A chord diagramC# minor 6C#m6
e|------------------------------------------------------------------------------------------------------|
B|------------------10------10----------------13--------------6-8/9\8-----------------------------------|
G|-------------10------10------10-------------12h14--12----------------9---(9)---------------10---------|
D|---------14-------------14------14----------15---------15---8--------8---(8)-----------14-------------|
A|-----12-----------------------------12h13---13-------------------------------------12-----------------|
E|-10------------------------------------------------------------------9---(9)---10---------------------|
                                                          A chord diagramBbmaj7Bbmaj7      A7sus2
e|------------------------------------------------------------------------------------------------------|
B|--13------------13----------------------8h10--8-(8)-----15--(15)----12h14--15\14----------------------|
G|------10------------10----------------------------------14--(14)----12--------------------------------|
D|-----------14-----------14---------8--------------------15--(15)----14--------------------------------|
A|------------------------------10------------------------13--(13)----12--------------------------------|
E|------------------------------------------------------------------------------------------------------|


************************************

| h   Hammer-on
| p   Pull-off
| t   Tapping
| /   Slide up
| \   Slide down
|()   Vibrato

************************************

Almost there ...

Sign in to get your own page with links to favourite songs and more. You are just one click away...

Login with Facebook Login with Google