Search tabs and chords

Search for song, artist or band

Log in

One click and you are in

Login with Facebook Login with Google

Why sign up and log in

Guitar Tabs Explorer
Megavier guitar tabs for Genug ist genug

Guitar tabs

MEGAVIER - GENUG ISST GENUG ISST GENUG

              Tabbed by blinders

            Want more? http://perso.club-internet.fr/blinders/

            HE! It's all my work! Don't touch

DROP D chord diagramDD

INTRO

|--0-|--0--0-0-0-0-0--|
|--0-|--0--0-0-0-0-0--|
|--0-|--0--0-0-0-0-0--|      then bass
RIFF 1=20

|--0-0-0-0-0-0-0-3-1--|--0-0-0-0-0-0-0-6--|
|--0-0-0-0-0-0-0-3-1--|--0-0-0-0-0-0-0-6--|
|--0-0-0-0-0-0-0-3-1--|--0-0-0-0-0-0-0-6--|

RIFF 2

 |--0--|--0-0-0-0-0-0-0-0--|--0-0-0-0-0-0-0-0--|
 |--0--|--0-0-0-0-0-0-0-0--|--0-0-0-0-0-0-0-0--|
 |--0--|--0-0-0-0-0-0-0-0--|--0-0-0-0-0-0-0-0--|
         PM-----------------------------------|


RIFF 3A

|--0-0-0-0-0-0-0-0-0-3-1--|--0-0-0-0-0-0-0-0-0-0-6--|
|--0-0-0-0-0-0-0-0-0-3-1--|--0-0-0-0-0-0-0-0-0-0-6--|
|--0-0-0-0-0-0-0-0-0-3-1--|--0-0-0-0-0-0-0-0-0-0-6--|

RIFF 3B

|--0-0-0-0-0-0-0-0-0-3-1--|--0-0-0-0-0-0-0-----6--|
|--0-0-0-0-0-0-0-0-0-3-1--|--0-0-0-0-0-0-0-----6--|
|--0-0-0-0-0-0-0-0-0-3-1--|--0-0-0-0-0-0-0-0-0-6--|
                                           pm

RIFF 4                         RIFF 5

|--0-0-3-3-1-1-0-6-6--|        |---0---|
|--0-0-3-3-1-1-0-6-6--|        |---0---|
|--0-0-3-3-1-1-0-6-6--|        |---0---|

RIFF 6

|--0-0-3/2-x-3/2-x-3/2-2-3--|
|--0-0-3/2-x-3/2-x-3/2-2-3--|
|--0-0-3/2-x-3/2-x-3/2-2-3--|

RIFF 7

|-0-0-0-0-0-0-0-0-|-0-0-0-0-3-1-|--0-0-0-0-0-0-0-0--|--0-0-0-0-0-0-------=
|-0-0-0-0-0-0-0-0-|-0-0-0-0-3-1-|--0-0-0-0-0-0-0-0--|--0-0-0-0-0-0-------=
|-0-0-0-0-0-0-0-0-|-0-0-0-0-3-1-|--0-0-0-0-0-0-0-0--|--0-0-0-0-0-0-12\gl-=
PM-------------------------|      PM------------------------------|

RIFF 8

|-----------------------------------|------------------3-1---
|-----------------------------------|------------------3-1---
|--0-0-0-0-0-0-0-0-0-0-0-0-0-0-0-0--|--0-0-0-0-0-0-0-0-3-1---=20
PM----------------------------------------------------|

|---------------------------------|-------------------------6-|
|---------------------------------|-------------------------6-|
|-0-0-0-0-0-0-0-0-0-0-0-0-0-0-0-0-|-0-0-0-0-0-0-0-0-0-0-0-0-6-|
PM---------------------------------------------------------|

RIFF9                                          RIFF9A

|---------------------------------3-4-3-1--|  |---------------------0--|
|---------------------------------3-4-3-1--|  |---------------------0--|
|-0-0-0-0-0-0-0-0-0-0-0-0-0-0-0-0-3-4-3-1--|  |-0-0-0-0-0-0-0-0-0-0-0--|
PM----------------------------------------|    PM------------------|


STRUCTURE

INTRO

RIFF1 (2x)

RIFF2

RIFF3A+B

RIFF3A+B

RIFF3A (2x)

RIFF4 (4x)

RIFF5

RIFF3A+B

RIFF3A+B

RIFF3A (2x)

RIFF4 (4x)

RIFF6 (4x)

RIFF5

RIFF7

RIFF8

RIFF1

RIFF8

RIFF5

RIFF9 (12x)

RIFF9A

RIFF4 (4x)

RIFF6 (8x)

Almost there ...

Sign in to get your own page with links to favourite songs and more. You are just one click away...

Login with Facebook Login with Google