Search tabs and chords

Search for song, artist or band

Log in

One click and you are in

Login with Facebook Login with Google

Why sign up and log in

Guitar Tabs Explorer
Megadeth bass tabs for Youthanasia

Bass tabs with lyrics

Youthanasia by Megadeth from January 1995 Guitar School magazine


[May be played on 4-string bass: numbers in <> are played on string shown
to replace note played on low B string.  Numbers in <> with dash above them
are notes played an octave higher than transcribed for 5-string bass.]

5-string electric bass
                     1.,2.,3.
                    |~~~~~~~~~~~~~~~~~~~
G:---------------------------------------|-------------------|
D:*---------------------------------5\--*|-------------------|
A:---------------------------------------|-------------------|
E:*-<0>--<2>----<3>-----5----6---7------*|---5----6---7--r---|
B:---5----7------8-----------------------|-------------------|

                                                            %sign

G:---------------|-----------------|-------------------------------|
D:---------------|-----------------|-----_--_--_----_--------------|
A:---------------|-Bass-Rest--(6)--|--R-<4><4><5>--<6>-------------|
E:-<0>-----------|-----------------|---------------------<0>-------|
B:--5-\----------|-----------------|-----2--2--3----4-----5-\------|
                                                         grad.sld.
                                                             1.Who'd

                                                         2nd time|
                                                        to Coda -0-
                                                                 |
G:-----------------|------------------------------|-----------------|
D:-----------------|-----_--_--_----_-------------|-----------------|
A:--Bass-Rest-(6)--|--R-<4><4><5>--<6>------------|--Bass-Rest-(7)--|
E:-----------------|--------------------<0>-------|-----------------|
B:-----------------|-----2--2--3----4----5-\------|-----------------|
                                        grad.sld.
   believe...

                                                      D.S. % al
                       1.,2.,3.               4.         Coda
                      |~~~~~~~~~~~~~~~~~~~~  |~~~~~~~~~~~~~~~~
G:-------------------|----------------------|-----------------|
D:*------------------|----------------5\---*|-----------------|
A:-------------------|----------------------|-----------------|
E:*<0>--<2>-----<3>--|---5----6---7--------*|--5-----6---7----|
B:--5----7-------8---|----------------------|-----------------|

     | CODA
    -0-
     |                            (x3)
   G:-----------------|-------------------|------------------|
   D:*----------------|--------------5\--*|------------------|
   A:-----------------|-------------------|------------------|
   E:*-<0>--<2>---<3>-|--5----6---7------*|-<0>--<2>----<3>--|
   B:---5----7-----8--|-------------------|--5----7------8---|


G:----------------------------|------------------------------------|
D:----------------------------|*------~~~~~~~----------------------|
A:--/10--/10--/10--/9--9--9---|-------7------------------5--(5)\---|
E:----------------------------|*-<0>------------7-6---6------------|
B:----------------------------|---5--------------------------------|


G:--------------------------|---------------------------------|
D:------~~~~~~--------------|------~~~~~~---------------------|
A:------7-------------------|------7----------------5---(5)\--|
E:-<0>----------7-6---6-3---|-<0>----------7-6---6------------|
B:--5-----------------------|--5------------------------------|


G:-------------------------------|
D:------~~~~~~------------------*|
A:------7------------------------|
E:-<0>----------7--6----R-------*|
B:--5----------------------------|


G:--------------------------------------------------------------7--9--(9)\---|
D:---------------------------------------------------------7-9---------------|
A:---------------------------------------------------------------------------|
E:-<0>----------<0><0>-----------<0-0><0>---------<0><0>------------------<0>|
B:--5------r-----5--5--------r----5-5--5----r------5--5--------------------5-|


G:--------------------------------------------------------|
D:--------------------------------------------------------|
A:--------------------------------------------------------|
E:-------<0><0>--------<0-0><0>-------<0><0>--3--4----5---|
B:----r---5--5-----r----5-5--5-----r---5--5---------------|


      Gtr Solo
G:--------------------------------------------------------------------|
D:*-------------------------------------------------------------------|
A:--------------------------------------------------------------------|
E:*-<0-0-0-0-0-0-0-0-0-0-0-0-0-0-0-0>7-7-7-7-7-7-7-7-7-7-7-7-7-7-7-7--|
B:---5-5-5-5-5-5-5-5-5-5-5-5-5-5-5-5----------------------------------|


                                                         (x4)
G:-------------------------------------------------------------|
D:------------------------------------------------------------*|
A:-------------------------------------------------------------|
E:-6-6-6-6-6-6-6-6-6-6-6-6-6-6-6-6-3--3-3-3-3-3-3-3--4----5---*|
B:-------------------------------------------------------------|


                                                         (x2)
G:------------------------------------------------------------|---------|
D:*----------------------------------------------------------*|---------|
A:------------------------------------------------------------|---Rest--|
E:*<0-0><0>-<0-0><0-0>-<0>-<0-0><0-0>-<0>-<0-0>--3--4----5---*|---------|
B:--5-5--5---5-5--5-5---5---5-5--5-5---5---5-5----------------|---------|


G:-------------------------------|------------------------|
D:*-----~~~~---------------------|-----~~~~---------------|
A:------7---------------5--(5)\--|-----7------------------|
E:*-<0>-------7--6---6-----------|-<0>-------7-6---6-3----|
B:---5---------------------------|--5---------------------|


                                                         (x3)
G:--------------------------------|--------------------------|
D:------~~~~~~--------------------|------~~~~---------------*|
A:------7----------------5--(5)\--|------7-------------------|
E:-<0>----------7-6---6-----------|-<0>---------7--6--------*|
B:--5-----------------------------|--5-----------------------|
/----------------------------------------\
|  ____    ____                          |
| (    `--'  .-'               _T_T_T_T_ |
| |8| O  O  |||||||||||||||||||[o o o o/ |
| (__,--.____\                 `~~~`--'  |
|     from the desk of jaco pastorius..  |
|            jazzbass@cfw.com            |
|  http://www.vt.edu:10021/A/acanterb/   |
\----------------------------------------/

Almost there ...

Sign in to get your own page with links to favourite songs and more. You are just one click away...

Login with Facebook Login with Google