Log in

One click and you are in

Login with Facebook Login with Google

Why sign up and log in

Guitar Tabs Explorer
Megadeth tabs for Victory

Guitar tabs with lyrics

from: James Johnson jamesj@svpal.org


                          MEGADETH-Youthanasia
                               Victory


Tune down 1/2 step

1 A chord diagramEb MajorEb   4 A chord diagramDbDb
2 A chord diagramBb majorBb   5 A chord diagramAbAb
3 A chord diagramGbGb   6 A chord diagramEb MajorEb

Ok I had enough request for the solos so here is the whole
Thing again w/ solos.


^=bend
p=pull off
h= hammer on
~~~vibrato
P.M.=palm mute
T= tap


W/ lyrics "Now one day I starting tellin' everyone" etc
|---------------------------------------------------------------------|
|---------------------------------------------------------------------|
|---------------------------------------------------------------------|
|-2-2----------------2-2-------------2-2-----------2--2------------2--|
|-2-2----------------2-2-------------2-2-----------2--2------------2--|
|-0-0----------------0-0-------------0-0-----------0--0------------0--|

Let Ring-----|   Let Ring------|
|------------------------------------|
|------------------------------------|
|-5----------------5-----------------|
|-5----------------2---------------2-|
|-3--4------5------3---4----5------2-|
|----------------------------------0-|

     P.M.   ..   ...       ...     ..
|---------------------------------------------------------------------|
|---------------------------------------------------------------------|
|---------------------------------------------------------------------|
|----------4---2------------------------------------------------------|
|-4----------------0-2-3-2-0---2-0------4-----------------------------|
|-2---2-2----2---2-----------2------2---2-----------------------------|


w/ "Not even close"
      P.M.   P.M.              P.M.    P.M.
|---------------------------------------------------------------------|
|---------------------------------------------------------------------|
|-----------------------------------------------------------9---------|
|-----------4-----2--------------------5----3---------------9---------|
|-4------------------4---3--5------------------5/7----------7---------|
|-2---2--2-----2------------3---3--3-----3----------------------------|

w/ "had fingers in my eyes" etc
    P.M.............      P.M.         P.M...........
|---------------------------------------------------------------------|
|---------------------------------------------------------------------|
|(9)------------------------------------------------------------------|
|(9)----------------10--9---------------------------------------------|
|(7)-----------------8--7-------9-8-----------------------------------|
|----0-0-0-0-0-0-0-0---------0--7-6---0-0-0-0-0-0-0-0-----------------|

            P.M.       P.M............      P.M..    P.M.........
|---------------------------------------------------------------------|
|---------------------------------------------------------------------|
|---------------------------------------------------------------------|
|--10--9----------7--9-----------------10--9--------------------------|
|---8--7----------5--7------------------8--7------9-8------------5----|
|-------------0--------0-0-0-0-0-0-0-0---------0--7-6--0-0-0-0-0-3----|

|---------------------------------------------------------------------|
|---------------------------------------------------------------------|
|---------------------------------------------------------------------|
|---/14---------------------------------------------------------------|
|---/14---------------------------------------------------------------|
|---/12---------------------------------------------------------------|

Little interlude part

|---------------------------------------------------------------------|
|---------------------------------------------------------------------|
|---------------------------------------------------------------------|
|-2-2-2-2--4--5----------4-5-----------4-5------------5--4------------|
|---------------3-3-3-3-------0-0-0-0--------2-2-2-2------------------|
|---------------------------------------------------------------------|
Guitar II part (comes in a little later)

|---------------------------------------------------------------------|
|---------------------------------------------------------------------|
|--------------2---4--------2--4-------2---4---4-----4---2------------|
|-----5~~~~~----------------------/7----------------------------------|
|---------------------3~~~~--------------------2----------------------|
|---------------------------------/5----------------------------------|

Guitar Solo  1
   T                T             T             T
|---------------------------------------------------------------------|
|-17--12-p-----------------------17---12-p----------------------------|
|----------14------16---12-p---------------14---16---12-p-------------|
|----------------------------14---------------------------14----------|
|---------------------------------------------------------------------|
|---------------------------------------------------------------------|

   T                T             T             T
|---------------------------------------------------------------------|
|-17--12-p-----------------------15---12-p----------------------------|
|----------14------16---12-p---------------14---16---12-p-------------|
|----------------------------14---------------------------14----------|
|---------------------------------------------------------------------|
|---------------------------------------------------------------------|

   T                T             T             T
|---------------------------------------------------------------------|
|-15--12-p-----------------------15---12-p----------------------------|
|----------14------16---12-p---------------14---16---12-p-------------|
|----------------------------14---------------------------14----------|
|---------------------------------------------------------------------|
|---------------------------------------------------------------------|

|---------------------------------------------------------------------|
|-17--12-p-----------------------17---12-p----------------------------|
|----------14------16---12-p---------------14---16---12-p-------------|
|----------------------------14---------------------------14----------|
|---------------------------------------------------------------------|
|---------------------------------------------------------------------|

   T                T             T             T
|---------------------------------------------------------------------|
|-17--12-p-----------------------15---12-p----------------------------|
|----------14------16---12-p---------------14---16---12-p-------------|
|----------------------------14---------------------------14----------|
|---------------------------------------------------------------------|
|---------------------------------------------------------------------|

   T              T                       T          T        T
|---------------------------------------------------------------------|
|---------------------------------------------------------------------|
|-15---12-p------14---12-p------12\11---------------------------------|
|-----------14-------------14---------10--14p10p8----14p10p8--14p10p8-|
|---------------------------------------------------------------------|
|---------------------------------------------------------------------|

   T          T         T        T        T         T
|---------------------------------------------------------------------|
|---------------------------------------------------------------------|
|---------------------------------------------------------------------|
|-14p10p8-----14p10p8---14p10p8--17p10p8--17p10p8--17p10p8--17\-------|
|---------------------------------------------------------------------|
|---------------------------------------------------------------------|


Guitar Solo 2

|-12-------12-------12-------12-------12-------12--------12-----------|
|----15p12----15p12----15p12----15p12----15p12----15p12-----15p12-----|
|---------------------------------------------------------------------|
|---------------------------------------------------------------------|
|---------------------------------------------------------------------|
|---------------------------------------------------------------------|
                 FULL
|-12----------17^-------------(17)----------------------12h14--15p14--|
|----15p12-------------------------------------12h14h15---------------|
|-------------------------------------12h14h15------------------------|
|---------------------------------------------------------------------|
|---------------------------------------------------------------------|
|---------------------------------------------------------------------|
                                                 FULL
|-12------12h14--17p14-12----12h14--12-----12----------12-------------|
|-----15------------------15-----------15------15^--------15--12------|
|---------------------------------------------------------------------|
|---------------------------------------------------------------------|
|---------------------------------------------------------------------|
|---------------------------------------------------------------------|

|---------------------------------------------------------------------|
|----------------------------------12h13p12---------------------------|
|-15-14-12--14\12------(12)\(5)/-----------14--12\11------------------|
|----------------------------------------------------12---------------|
|--------------------------------------------------------12\10--------|
|---------------------------------------------------------------------|

Guitar Solo 3
|---------------------------------------------------------------------|
|-15p12-----12-15p12-15p12----12-15p12-17p12----12--15p12------12-----|
|-------15-----------------15----------------15-----------15----------|
|---------------------------------------------------------------------|
|---------------------------------------------------------------------|
|---------------------------------------------------------------------|

|-----------------------------------------------------------17p15p12--|
|-15p12-17p12-----12--15p12-----12-17p12-----12-17p12-15p12-----------|
|--------------15-----------15------------15--------------------------|
|---------------------------------------------------------------------|
|---------------------------------------------------------------------|
|---------------------------------------------------------------------|
                                                  FULL
|---------------------------------------------------------------------|
|-17p15p12-----------17p15p12-----------------------------------------|
|----------15p14p12-----------16p15p14p12----12h14^-------------------|
|-----------------------------------------14--------------------------|
|---------------------------------------------------------------------|
|---------------------------------------------------------------------|

|---------------------------------------------------------------------|
|----------------------------------12\--------------------------------|
|---14----12---14p12~~~~~~~~~------12\--------------------------------|
|---------------------------------------------------------------------|
|---------------------------------------------------------------------|
|---------------------------------------------------------------------|

Guitar Solo 4

|------------------------------------------------12h15p12----12-------|
|-----------------------------------------/12h15----------15----------|
|--------------------------9h12p9----9h12-----------------------------|
|---------------------9h12--------12----------------------------------|
|------7h10p7----7h10-------------------------------------------------|
|-7h10--------10------------------------------------------------------|

|----------15-------------12------------10----------8-----------------|
|-15-12h15----15p12p10h12----12p10p8h10----10p8p7h8---8p7---8p7-------|
|---------------------------------------------------------9-----------|
|---------------------------------------------------------------------|
|---------------------------------------------------------------------|
|---------------------------------------------------------------------|

|---------------------------------------------------------------------|
|-----------------5---------------------------------------------------|
|--9-7-9-7\5h7p5----7p5h7p5\4h7p5p4h5h7p5p4h5p4h7p4h7p5p4-------------|
|---------------------------------------------------------5~~~~~~~----|
|---------------------------------------------------------------------|
|---------------------------------------------------------------------|

|-------------------------10~~~----------------15~~-(15)-------22^----|
|-------------------7--8---------13--12---13-------------19-20--------|
|----------7--7~~~----------------------------------------------------|
|--4---5--------------------------------------------------------------|
|---------------------------------------------------------------------|
|---------------------------------------------------------------------|

     FULL      Full    Full.................
|--22^-------22^-----22^--------------------(22)----------------------|
|---------------------------------------------------------------------|
|---------------------------------------------------------------------|
|---------------------------------------------------------------------|
|---------------------------------------------------------------------|
|---------------------------------------------------------------------|



***********************************************************************
jamesj@svpal.org                    |   Questions/Comments, email  me |
Face Down Arms Out                  |    I'll respond to all          |
  Nailed to the Cross of Doubt      |                                 |
Blood Runs Like Rain                |**********************************
  Drowning For This World In Vain   |Fav Bands                        |
Crown Of Black Thorns               |Megadeth/Slayer/Pantera/Sepultura|
  Human Skin, Ripped and torn       |Deicide/Nailbomb/Fear Factory/   |
Where is Your Savior now?           |Ministry/Machine Head/CoC        |
      --Burton C. Bell/Fear Factory | And my own of course            |
***********************************************************************

Almost there ...

Sign in to get your own page with links to favourite songs and more. You are just one click away...

Login with Facebook Login with Google