Log in

One click and you are in

Login with Facebook Login with Google

Why sign up and log in

Guitar Tabs Explorer
Megadeth tabs for Use the man

Guitar tabs

Here are the basic chords for this song. I can't be bothered to type out
the rhythm 4 the whole thing but you can get it if you email me!
Anyway here it is!

Intro and Verse (acoustic)

Chords: E,G,F#,F
E------0----3----2----1-
B------0----3----2----1-
G------1----4----3----2-
D------2----5----4----3-
A------2----5----4----3-
E------0----3----2----1-
-------E----G----F#---F-
Play the above chords with the correct rhythm!


Chorus
E-----------------------------------------------------------------
B-----------------------------------------------------------------
G-----------------------------------------------------------------
D---2-2-2-5-5-5-4-4-4-3-3-3---------------------------------------
A---2-2-2-5-5-5-4-4-4-3-3-3---------------------------------------
E---0-0-0-3-3-3-2-2-2-1-1-1---------------------------------------

Brige (cryptic writings on the wall..) goes Like This
E-----------------------------------------------------------------
B-----------------------------------------------------------------
G-----------------------------------------------------------------
D--4-4-4-7-7-7-6-6-6-5-5-5----------------------------------------
A--4-4-4-7-7-7-6-6-6-5-5-5----------------------------------------
E--2-2-2-5-5-5-4-4-4-3-3-3----------------------------------------


Solo Rhythm
E-----------------------------------------------------------------
B-----------------------------------------------------------------
G-----------------------------------------------------------------
D--2---3---4---3--------------------------------------------------
A--2---5---4---3--------------------------------------------------
E--0---3---2---1--------------------------------------------------

Last Chorus
E-----------------------------------------------------------------
B-----------------------------------------------------------------
G-----------------------------------------------------------------
D--2--5--7--------------------------------------------------------
A--2--5--7------3-3232532-something like that!--------------------
E--0--3--5--------------------------------------------------------


Outro Riff (from Megadeth, Canada by Christopher Heer!)
E-----------------------------------------------------------------
B-----------------------------------------------------------------
G-----------------------------------------------------------------
D-2~~25p2-4p2-2---2-5p2-4p2-2---2-5p2-4p2-2-----------------------
A--------------5~~-----------4~~------------3~~-2323532-----------
E-----------------------------------------------------------------

Almost there ...

Sign in to get your own page with links to favourite songs and more. You are just one click away...

Login with Facebook Login with Google