Log in

One click and you are in

Login with Facebook Login with Google

Why sign up and log in

Guitar Tabs Explorer
Megadeth tabs for Trust

Guitar tabs with lyrics

Trust  by  Megadeth
>From the album "Cryptic Writings"
Transcribed by Christopher Thompson


Note: Played with heavy distortion throughout
At the beginning it fades in with these chords:
e------------------------------------------
B------------------------------------------
G--------------9---------5------2--------
D--------------9---------5------2------3
A--------------7---------3------0------3
E--------------------------------------1

As it goes on the guitar gets louder, then it goes into this riff

Riff A chord diagramA augmentedA
e-----------------------------------------------------------
B-----------------------------------------------------------
G-----------------------------------------------------------
D-----------------------------------------------------------
A-------7-------------7--------------7-----------------7----
E-----0---8-7-------0---8----7----0----8-7--------0-----8-7-

e---------------------------
B---------------------------
G---------------------------
D---------------------------
A-------7-----------5-------
E----0----6-5----0---0--6/8-

Then it repeats and goes into the verse
During the verse it goes into this riff

Riff A chord diagramBB

e-----------------------------------------------------------------------------
B-----------------------------------------------------------------------------
G---9-------------------5---------------------2------------------------------
D---9-------------------5---------------------2-----------------3------------
A---7-------------------3---------------------0-----------------3------------
E--------0-0-0-0-0-0---------0-0-0-0-0-0----0-0-0-0-0-0--1-0-0-0-0-0
         P.M.-------------}  P.M.--------------} P.M.-----------}

e------------------------------------------------------------
B------------------------------------------------------------
G---9------------------5-------4-------2-----------------3
D---9------------------3-------4-------2-----------------3
A---7------------------3-------2-------0-----------------3
E------0-0-0-0-0-0------0-0-----0-0---0-0-0-0-0-0--1
          P.M.----------}P.M.-}   P.M.--}P.M.----------}
Then it repeats. Right before it goes into the chorus and you play the A chord diagramF5F5

chord.
for the last time it goes...


e---------------------
B---------------------
G---------------------
D--3--3-3-3-3-3-3
A--3--3-3-3-3-3-3
E--1--1-1-1-1-1-1
       P.m.-----}

Then during the chorus, you play Riff A chord diagramA augmentedA


Well, that's all I have figured out

Note: P.M.- right hand ( picking hand ) palm muting
          /- slide up
ⓘ Guitar tab for 'Trust' by Megadeth, a thrash metal band formed in 1983 from San Francisco, USA. Megadeth is known for their angry metal music.

Other versions of Trust

Trust liveTabs

Almost there ...

Sign in to get your own page with links to favourite songs and more. You are just one click away...

Login with Facebook Login with Google